a b c d e f g h i j k l m n o p q r s t u v w x y z 0-9

Agradable Locura Temporal

Panda

			
AFINACIÓN: BEMOL
                   INTRO
                   R2D2
 
D#||-----------------------------------|
A#||-----------------------------------|
F#||------16--14--11-12--11-----9--11--|
C#||--12---------------------12--------|
G#||-----------------------------------|
D#||-----------------------------------|
 
------------------------------------|
------------------------------------|
------16--14--11-12--11-------------|
--12---------------------12-14--11--|
------------------------------------|
------------------------------------|
  
-----------------------------------|
-----------------------------------|
------16--14--11-12--11-----9--11--|
--12---------------------12--------|
-----------------------------------|
-----------------------------------|
 
------------------------------------|
------------------------------------|
------16--14--11-12--11-------------|
--12---------------------12-14--11--|
------------------------------------|
------------------------------------|

------------------------------------|
------------------------------------|
------------------------------------|
------12--14--12-14--12-16--12--14--|
--12--------------------------------|
------------------------------------|

------------------------------------|
------------------------------------|
------------------------------------|
------12--14--12-14--12-16--12--14--|
--12--------------------------------|
------------------------------------|

-----------------------------------|----------------------------
-----------------------------------|-----------------15---------
------16--14--11-12--11-----9--11--|------16--14--11------------
--12---------------------12--------|--12------------------------
---------------------------------|-----------------------------
-----------------------------------|----------------------------
   PEPE TOCA ESTO
  
D#||---------------------------------|
A#||---------------------------------|
F#||---------------------------------|
C#||--7---7---7----7---7---7---7-7-7-|
G#||--5-x-5-x-5--x-5-x-5-x-5-x-5-5-5-|
D#||--5-x-5-x-5--x-5-x-5-x-5-x-5-5-5-|
 
---------------------------------|
---------------------------------|
---------------------------------|
--7---7---7----7---7---7---7-7-7-|
--5-x-5-x-5--x-5-x-5-x-5-x-5-5-5-|
--5-x-5-x-5--x-5-x-5-x-5-x-5-5-5-|

---------------------------------|
---------------------------------|
---------------------------------|
--4---4---4----4---4---4---4-4-4-|
--2-x-2-x-2--x-2-x-2-x-2-x-2-2-2-|
--2-x-2-x-2--x-2-x-2-x-2-x-2-2-2-|
 
---------------------------------|
---------------------------------|
---------------------------------|
--4---4---4----4---4---4---4-4-4-|
--2-x-2-x-2--x-2-x-2-x-2-x-2-2-2-|
--2-x-2-x-2--x-2-x-2-x-2-x-2-2-2-|

---------------------------------|
---------------------------------|
---------------------------------|
--5-x-5-x-5--x-5-x-5-x-5-x-5-5-5-|
--5-x-5-x-5--x-5-x-5-x-5-x-5-5-5-|
--3-x-3-x-3--x-3-x-3-x-3-x-3-3-3-|
  
---------------------------------|
---------------------------------|
---------------------------------|
--5-x-5-x-5--x-5-x-5-x-5-x-5-5-5-|
--5-x-5-x-5--x-5-x-5-x-5-x-5-5-5-|
--3-x-3-x-3--x-3-x-3-x-3-x-3-3-3-|
 
---------------------------------|
---------------------------------|
---------------------------------|
--7---7---7----7---7---7---7-7-7-|
--5-x-5-x-5--x-5-x-5-x-5-x-5-5-5-|
--5-x-5-x-5--x-5-x-5-x-5-x-5-5-5-|
                              
---------------------------|-------|-------|-------|-------|
---------------------------|-------|-------|-------|-------|
---------------------------|-------|-------|-------|-------|
--7---7---7----7-----------|-------|-------|-------|-------|
--5-x-5-x-5--x-5-----------|-------|-------|-------|-------|
--5-x-5-x-5--x-5-----------|-------|-------|-------|-------|
EL VERSO ES PURO BAJO PERO SE LOS DEJO POR SI LO QUIEREN TOCAR 
NDAMAS CALCULEN EL TIEMPO
 
F#||---------------------------------|
C#||-------------------------------------
G#||-5-5-5-5-5-5-2-2-2-2-2-2----------HACIHASTA EL CORO
D#||-------------------------3-3-3-3-3-3-3-
PRE-CORO
PEPE
 
-------7-------7-------7-------7--|
-------7-------7-------7-------7--|
--x--7--x--7--x--7--x--7--|
--x--9--x--9--x--9--x--9--|
----------------------------------|
----------------------------------|

-------7-------7-------7-------7--|
-------7-------7-------7-------7--|
--x--7--x--7--x--7--x--7--|
--x--9--x--9--x--9--x--9--|
----------------------------------|
----------------------------------|

-------3-------3-------3-------3--|
-------3-------3-------3-------3--|
--x--4--x--4--x--4--x--4--|
--x--5--x--5--x--5--x--5--|
----------------------------------|
----------------------------------|

-------3-------3-------3-------3--|
-------3-------3-------3-------3--|
--x--4--x--4--x--4--x--4--|
--x--5--x--5--x--5--x--5--|
----------------------------------|
----------------------------------|
 
-------5-------5-------5-------5--|
-------7-------7-------7-------7--|
--x--7--x--7--x--7--x--7--|
--x--7--x--7--x--7--x--7--|
----------------------------------|
----------------------------------|
                       
-------5-------5-------5-------5--|-----|-----|-----|-----|
-------7-------7-------7-------7--|-----|-----|-----|-----|
--x--7--x--7--x--7--x--7--|-----|-----|-----|-----|
--x--7--x--7--x--7--x--7--|-----|-----|-----|-----|
----------------------------------|-----|-----|-----|-----|
----------------------------------|-----|-----|-----|-----|
ESTO LO TOCA 2 VECES Y EN LA 2DA REPETICIÓN R2D2 TOCA ESTO:


--7--------7--------7-----|--7--------7--------7-----|
-----7--------7-----------|-----7--------7-----------|
--------7--------7--------|--------7--------7--------|
--------------------------|--------------------------|
--------------------------|--------------------------|
--------------------------|--------------------------|

--10----------10----------10-----|
------12----------12-------------|
----------12----------12---------|
---------------------------------|
---------------------------------|
---------------------------------|

--10----------10----------10-----|
------12----------12-------------|
----------12----------12---------|
---------------------------------|
---------------------------------|
---------------------------------|

--12----------12----------12-----|
------14----------14-------------|
----------14----------14---------|
---------------------------------|
---------------------------------|
---------------------------------|

--12----------12----------12-----|
------14----------14-------------|
----------14----------14---------|
---------------------------------|
---------------------------------|
---------------------------------|
CORO
R2D2


--7--------7--------7-----|--7--------7--------7-----|
-----7--------7-----------|-----7--------7-----------|
--------7--------7--------|--------7--------7--------|
--------------------------|--------------------------|
--------------------------|--------------------------|
--------------------------|--------------------------|

--10----------10----------10-----|
------12----------12-------------|
----------12----------12---------|
---------------------------------|
---------------------------------|
---------------------------------|

--10----------10----------10-----|
------12----------12-------------|
----------12----------12---------|
---------------------------------|
---------------------------------|
---------------------------------|
 
--12----------12----------12-----|
------14----------14-------------|
----------14----------14---------|
---------------------------------|
---------------------------------|
---------------------------------|

--12----------12----------12-----|
------14----------14-------------|
----------14----------14---------|
---------------------------------|
---------------------------------|
---------------------------------|
             
--10----------10----------10-----|-------------------|
------12----------12-------------|-------------------|
----------12----------12---------|-------------------|
---------------------------------|-------------------|
---------------------------------|-------------------|
---------------------------------|-------------------|
PEPE TOCA ESTO 

|---------------------------|
|---------------------------|
|---------------------------|
|--9--9--9--9-9--9-9--9--9--|
|--9--9--9--9-9--9-9--9--9--|
|--7--7--7--7-7--7-7--7--7--|

---------------------------|---------------------------|
---------------------------|---------------------------|
---------------------------|---------------------------|
--9--9--9--9-9--9-9--9--9--|--5--5--5--5-5--5-5--5--5--|
--9--9--9--9-9--9-9--9--9--|--5--5--5--5-5--5-5--5--5--|
--7--7--7--7-7--7-7--7--7--|--3--3--3--3-3--3-3--3--3--|
  
---------------------------|---------------------------|
---------------------------|---------------------------|
---------------------------|---------------------------|
--5--5--5--5-5--5-5--5--5--|--7--7--7--7-7--7-7--7--7--|
--5--5--5--5-5--5-5--5--5--|--7--7--7--7-7--7-7--7--7--|
--3--3--3--3-3--3-3--3--3--|--5--5--5--5-5--5-5--5--5--|
           
---------------------------|-------------------|
---------------------------|-------------------|
---------------------------|-------------------|
--5--5--5--5-5--5-5--5--5--|--7----------------|
--5--5--5--5-5--5-5--5--5--|--7----------------|
--3--3--3--3-3--3-3--3--3--|--5----------------|           

LUEGO EL INTRO Y TODO LO DEMÁS HASTA LA PARTE DE:
LA ADICCIÓN EMOCIONAL ES UN..........

R2D2 TOCA ESTO EN ESA PARTE

--7--------7--------7-----|--5--------7--5-----------|
-----8--------8-----------|-----7-----------7--------|
--------7--------7--------|--------7-----------7-----|
--------------------------|--------------------------|
--------------------------|--------------------------|
--------------------------|--------------------------|

--7--------7--------7-----|--9---------10--9------------|
-----7--------7-----------|-----10------------10--------|
--------7--------7--------|---------9-------------9-----|
--------------------------|-----------------------------|
--------------------------|-----------------------------|
--------------------------|-----------------------------|
ESO VA X4 Y EN LA 3RA REPETICIÓN PEPE ENTRA CON ESTO:
 
--3--3--3--3--3--3--3-----|--------------------------|
--3--3--3--3--3--3--3-----|--7--7--7--7--7--7--7-----|
--4--4--4--4--4--4--4-----|--7--7--7--7--7--7--7-----|
--------------------------|--7--7--7--7--7--7--7-----|
--------------------------|--------------------------|
--------------------------|--------------------------|
 
--7--7--7--7--7--7--7-----|--5--5--5--5--5--5--5-----|
--7--7--7--7--7--7--7-----|--5--5--5--5--5--5--5-----|
--7--7--7--7--7--7--7-----|--6--6--6--6--6--6--6-----|
--------------------------|--------------------------| X2
--------------------------|--------------------------|
--------------------------|--------------------------|

Y ACABA CON EL INTRO
DUDAS, COMENTARIOS, MENTADAS DE MADRE E INVITACIÓNES A FIESTAS SWINGERS
 AL CORREO:  panda_vetealaverga@hotmail.com
Y UN SALUDO AMI AMIGO: REVOLUCIONDELROCK

Fuente: tusacordes.com