a b c d e f g h i j k l m n o p q r s t u v w x y z 0-9

Adheridos Separados

Panda

			
eb----------------
Bb------4h5h4-----
Gb-1/444-----666--
Db----------------
Ab----------------
Eb----------------

eb-----------------------7-7--7---7-----11r12r11---
Bb------4h5h4--------7-7----7---7---------------12-
Gb---444-----666----9-9-9-9--9-9-9-----------------
Db-------------------------------------------------
Ab-------------------------------------------------
Eb-------------------------------------------------

Acaso no prometimos.... Puro bajo
eb----------------
Bb----------------
Gb----------------
Db----------------  aplausos , xD
Ab----------------
Eb----------------

eb--------------------------------------------
Bb--------------------------------------------
Gb---------------------------66666666-999999--
Db-22222-666-4-22222-666-4---66666666-999999-- x2
Ab-22222-666-4-22222-666-4---44444444-777777--
Eb-00000-444-2-00000-444-2--------------------

eb----------------
Bb------4h5h4-----
Gb-1/444-----666--
Db----------------
Ab----------------
Eb----------------

eb-----------------------7-7--7---7-----11r12r11---
Bb------4h5h4--------7-7----7---7---------------12-
Gb---444-----666----9-9-9-9--9-9-9-----------------
Db-------------------------------------------------
Ab-------------------------------------------------
Eb-------------------------------------------------


esto ps lo toka pepe en octabas asi ke eso no xD
eb----------------
Bb----------------
Gb----------------
Db----------------
Ab----------------
Eb----------------

aki entra arturo
eb-------7-7h9h7-----11-11r12r11--11-11r12r11---
Bb-4h6h4---7h9h7----------------12-----------11-
Gb---------------x2-----------------------------
Db----------------------------------------------
Ab----------------------------------------------
Eb----------------------------------------------

eb------------------------------------
Bb--12--12--12--12--11--11--11--11----
Gb----11--11--11--11--11--11--11--11--
Db------------------------------------ x muchas veces
Ab------------------------------------
Eb------------------------------------

esto dsps

eb----------------
Bb------4h5h4-----
Gb-1/444-----666--
Db----------------
Ab----------------
Eb----------------

eb-----------------------7-7--7---7-----11r12r11---
Bb------4h5h4--------7-7----7---7---------------12-
Gb---444-----666----9-9-9-9--9-9-9-----------------
Db-------------------------------------------------
Ab-------------------------------------------------
Eb-------------------------------------------------

eb----------------
Bb------4h5h4-----
Gb---444-----666--
Db----------------
Ab----------------
Eb----------------

eb-----------------------7-7--7---7-----12-11---
Bb------4h5h4--------7-7----7---7------------12-
Gb-1/444-----666----9-9-9-9--9-9-9--------------
Db----------------------------------------------
Ab----------------------------------------------
Eb----------------------------------------------

esto le sige
eb-------------------------------------------
Bb-12121212-161616-1414-12121212-161616-1414-
Gb-------------------------------------------
Db-------------------------------------------
Ab-------------------------------------------
Eb-------------------------------------------

eb----14--14--14--14--16--14--14-----------------------
Bb--12--12--12--12--12--12--12--12-141414-12-11h12h11--
Gb-----------------------------------------------------
Db-----------------------------------------------------
Ab-----------------------------------------------------
Eb-----------------------------------------------------

eb-------------------------------------------
Bb-12121212-161616-1414-12121212-161616-1414-
Gb-------------------------------------------
Db-------------------------------------------
Ab-------------------------------------------
Eb-------------------------------------------

eb-11r12r11-----------11r12r11----------------------
Bb---------14-12121212---------1414-111111h12h11h12-
Gb--------------------------------------------------  FIN xD
Db--------------------------------------------------
Ab--------------------------------------------------
Eb--------------------------------------------------

Fuente: Tusacordes