a b c d e f g h i j k l m n o p q r s t u v w x y z 0-9

Adheridos Separados

Panda

			
AFINACION  BeMol

F#
C#
G#
D#

Intro:   OJO es 11 no 1-1 y asi todas las demas....

F#)-------------------------------
C#)-------------------------------  x2
G#)------------------18------16---
D#)12121212121212/16----1414------

F#)----------------------------------------
C#)----------------------------------------
G#)-----11111111111111---------444---4-----
D#)9999----------------0000-22-----2-------

Verso: "Acaso no prometimos..."

F#)-------------------------------
C#)----11h13----13---13-----------
G#)-11-------11----11---999-7-777-
D#)-------------------------------

"Juntos siempre estar...#

F#)----------------------------------------------------------------
C#)----11h13----13---13------------------------------------11---11-
G#)-11-------11----11---999--7-777----------2-222-7-777-99----99---
D#)---------------------------------2222-00------------------------

"Si la ignorancia es dicha...."

F#)-------------------------------
C#)----11h13----13---13-----------
G#)-11-------11----11---999-7-777-
D#)-------------------------------

"Entonces quiero ser..."

F#)------------------------------------------------------------------
C#)----11h13----13---13---------------------------9----9----11----11-
G#)-11-------11----11---999-7-777---------2-222-7---77---99----99----
D#)-------------------------------2222-00----------------------------

"Pense que habia...."

F#)-----------------------------------------------------------
C#)-----------------------------------------------------------
G#)------------------------------------------222--------------
D#)4444444-222-000-44444444-222-000-2222-000-----00000-222222-

"Tenia todo planeado...."  (es 11 no 1-1)

F#)-----------------------------------------------------
C#)-----------------------------------------------------
G#)111111111111-9999-7777-111111111111-9999-7777--------
D#)-----------------------------------------------------

F#)--------------------------
C#)--------------------------
G#)9999-5555------5555-77777-
D#)----------5555------------

"Yo prometo cantar..."

F#)------------------------------------
C#)------------------------------------
G#)------------------------------------
D#)444444-2222-0000-4444444-2222-0000--

F#)---------------------------------
C#)-----------------------11----11--
G#)444444444444/777777-99----99-----
D#)---------------------------------

"Tu prefieres oir..."

F#)------------------------------------
C#)------------------------------------
G#)------------------------------------
D#)444444-2222-0000-4444444-2222-0000--

F#)---------------------------------
C#)-----------------------11----11--
G#)444444444444/777777-99----99-----
D#)---------------------------------

Se repite Intro:

F#)-------------------------------
C#)-------------------------------  x2
G#)-------------------------------
D#)12121212121212/161616-14-1414--

F#)----------------------------------------
C#)----------------------------------------
G#)-----11111111111111---------444---4-----
D#)9999----------------0000-22-----2---4*--

"Ponle atencion a este mapa..."

F#)--------------------------------------
C#)-------------11h13--------------------
G#)------7--11--------9--7------2--7--9--
D#)4--2--------------------2--0----------

"En que tu y yo..."

F#)-------------------------------
C#)------------------------------- x4
G#)-------777777-444444-55555-----
D#)555555-------------------------

"Yo prometo cantar..."

F#)------------------------------------
C#)------------------------------------
G#)------------------------------------
D#)444444-2222-0000-4444444-2222-0000--

F#)---------------------------------
C#)-----------------------11----11--
G#)444444444444/777777-99----99-----
D#)---------------------------------

"Tu prefieres oir..."

F#)------------------------------------
C#)------------------------------------
G#)------------------------------------
D#)444444-2222-0000-4444444-2222-0000--

F#)---------------------------------
C#)-----------------------11----11--
G#)444444444444/777777-99----99-----
D#)---------------------------------

"No, no te rindas jamas.."

F#)------------------------------------
C#)------------------------------------
G#)------------------------------------
D#)444444-2222-0000-4444444-2222-0000--

F#)---------------------------------
C#)-----------------------11----11--
G#)444444444444/777777-99----99-----
D#)---------------------------------

"No, no puedo evitar..."

F#)------------------------------------
C#)------------------------------------
G#)------------------------------------
D#)444444-2222-0000-4444444-2222-0000--

F#)-----------------------------------
C#)-----------------------11----11----
G#)444444444444/777777-99----99-----7-
D#)-----------------------------------

Fuente: tusacordes.com