a b c d e f g h i j k l m n o p q r s t u v w x y z 0-9

Abigail

Panda

			
esta rola es nueva y creo que la tab esta que saque tambien junsgen ustedes y les quiero recomendar 
una banda nueva que toca chido se llama finde se las recomiendo cheque y hay les va mi correo armandoentumundo@hotmail.com 

00:04
Parte 1              X3
eb-------------------------------------------------------
Bb-------------------------------------------------------
Gb-----2------2------2------2--------7----7--------------
Db----4-4----4-4----4-4----4-4------4----4-----6----6----
Ab---------------------------------5----5-----4----4-----
Eb---2------2------2------2------------------5----5------

00:28
Parte 2               X4
eb--5--5--5--5--5--5--5--5-------------------------------
Bb---7--7--7--7--7--7--7--7---7--7--7--7----5--5--5--5---
Gb-----------------------------7--7--7--7----6--6--6--6--
Db-------------------------------------------------------
Ab-------------------------------------------------------
Eb-------------------------------------------------------

01:00
Parte 3                X1
eb-------------------------------------------------------
Bb-------------------------------------------------------
Gb-----77---77---77---77------44---44------99---99-------
Db-----77---77---77---77------22---22------99---99-------
Ab---55---55---55---55------44---44------77---77---------
Eb---55---55---55---55------22---22------77---77---------

01:16
Parte 1                X1
eb-------------------------------------------------------
Bb-------------------------------------------------------
Gb-----2------2------2------2--------7----7--------------
Db----4-4----4-4----4-4----4-4------4----4-----6----6----
Ab---------------------------------5----5-----4----4-----
Eb---2------2------2------2------------------5----5------


01:24
Parte 2                 X2
eb--5--5--5--5--5--5--5--5-------------------------------
Bb---7--7--7--7--7--7--7--7---7--7--7--7----5--5--5--5---
Gb-----------------------------7--7--7--7----6--6--6--6--
Db-------------------------------------------------------
Ab-------------------------------------------------------
Eb-------------------------------------------------------


01:40
Parte 3                X4
eb-------------------------------------------------------
Bb-------------------------------------------------------
Gb-----77---77---77---77------44---44------99---99-------
Db-----77---77---77---77------22---22------99---99-------
Ab---55---55---55---55------44---44------77---77---------
Eb---55---55---55---55------22---22------77---77---------


Pre-Solo
eb-------------------------------------------------------
Bb-------------------------------------------------------
Gb-------------------------------------------------------
Db------5-4------2-------------5-4-----2---------------------]
Ab----4--------4---4----4----4-------4---4----4----------    ]
Eb--2--------2--------2----2-------2--------2------------    ]
                                                             ]X2
                                                             ]
eb-------------------------------------------------------    ]
Bb-------------------------------------------------------    ]
Gb--------5---------------------5----------------------------]
Db------7---7----7---7---7----7---7----7---7---7---------
Ab----5--------5---5---5----5--------5---5---5-----------
Eb-------------------------------------------------------



Solo       Pa = Pinch Armonic      p = Pull Off

eb-------Pa14--Pa14------------------------------Pa17p16-
Bb-------------------------------------------------------
Gb----------------------11--13-14--14-13-11--------------
Db------------------------------------------14-----------
Ab--9----------------------------------------------------
Eb-------------------------------------------------------


eb-----------------15------------------------------------
Bb----17--------------------15-------15-17-15-14-15------
Gb-------11--11-12----11-12----11-12----------------14---
Db-------------------------------------------------------
Ab-------------------------------------------------------
Eb-------------------------------------------------------


03:24
Parte 3              X4
eb-------------------------------------------------------
Bb-------------------------------------------------------
Gb-----77---77---77---77------44---44------99---99-------
Db-----77---77---77---77------22---22------99---99-------
Ab---55---55---55---55------44---44------77---77---------
Eb---55---55---55---55------22---22------77---77---------


03:56
eb-------------------------------------------------------
Bb-------------------------------------------------------
Gb---2------2------2------2------2------2------2------2--
Db--4-4----4-4----4-4----4-4----4-4----4-4----4-4----4-4-
Ab-------------------------------------------------------
Eb-2------2------2------2------2------2------2------2----


04:04
eb------2------
Bb------2------
Gb------2------
Db------4------
Ab------4------
Eb------2------

Fuente: tusacordes.com