a b c d e f g h i j k l m n o p q r s t u v w x y z 0-9

Abigail

Panda

			
afinada:normal
autor:pxndx
disco:poetics

x:lo repites por el num k ezta ai jha XD

intr0o:

|------------------|
|-------2----------|
|--1---------0-----|
|--3----3----------|
|-------4----3-----|
|--1---------4-----|



|-4--4--4--4--4--4--4--4-----------------------------|
|---6--6--6--6--6--6--6--6--6--6--6--6--4--4--4--4---|
|-----------------------------6--6--6--6--5--5--5--5-|
|----------------------------------------------------|
|----------------------------------------------------|
|----------------------------------------------------|


cheken aki laz vecez k ze repite xk me da weva poner todaz laz repetecionez jhajhajha	
|---------------------|
|---------------------|
|---6----3----8-------|
|---6----1----8-------|
|--4----3----6--------|
|-4----1----6---------|


|-4--4--4--4--4--4--4--4-----------------------------|
|---6--6--6--6--6--6--6--6--6--6--6--6--4--4--4--4---|
|-----------------------------6--6--6--6--5--5--5--5-|
|----------------------------------------------------|
|----------------------------------------------------|
|----------------------------------------------------|

es igual k el d arriba
|---------------------|
|---------------------|
|---6----3----8-------|
|---6----1----8-------|
|--4----3----6--------|
|-4----1----6---------|

va el solo :

todavia no saco el solo jha XD pero esto es lo q le sigue 

|----------------------------------|
|---------------------14---13------|
|--13-----12----10------x3---x4----|
|-----x7-----x3---x5--12---10------| 
|--11-----10----8------------------| 
|----------------------------------|

|----------------------------------|
|---------------------14---13------|
|--13-----12----10------x3---x4----|
|-----x7-----x3---x5--12---10------| 
|--11-----10----8------------------| 
|----------------------------------|

|----------------------------------|
|---------------------14---13------|
|--13-----12----10------x3---x4----|
|-----x7-----x3---x5--12---10------| 
|--11-----10----8------------------| 
|----------------------------------|

|----------------------------------|
|---------------------14---13------|
|--13-----12----10------x3---x6----|
|-----x7-----x3---x5--12---10------| 
|--11-----10----8------------------| 
|----------------------------------|


y esto se repite hasta k termina
|---------------------|
|---------------------|
|---6----3----8-------|
|---6----1----8-------|
|--4----3----6--------|
|-4----1----6---------|

termina en

|-1-|
|-1-|
|-1-|
|-3-|
|-3-|
|-1-|

y si alguien sabe q pedal usan en el solo m lo mandan a mi msn va? ax3l_plata@hotmail.com


arriva 
pxndx!!!!!!!!!!

Fuente: tusacordes.com