a b c d e f g h i j k l m n o p q r s t u v w x y z 0-9

3 + 1

Panda

			
Bueno esta es una transcripcion q hice
talves no este 100  correcta pero suena mas chido
esta con la afinación normal de EADGBe
tokenla y veran q suena bn saludos a todos y q viva panda
q esto sea de su agrado

tb esto jala como la intro
e|-------------------14--13--------
B|--------------14-------------14--
G|---------13------------------------
D|---11------------------------------
A|-------------------------------------
E|-------------------------------------


ESTA ES LA PRIMER GUITARRA
Intro: Estos son armónicos
e|--------------------------------------------
B|--------------------------------------------
G|------------------6-----11-10---6--- x4
D|--11----6-------------------------------
A|--------------------------------------------
E|--------------------------------------------

MIENTRAS LA SEGUNDA GUITARRA EN EL INTRO TOCA ESTO
Es lo mismo despues en el seg. 0:15 solo vean y chequen los tiempos
|---------------------------------------|
|---------------------------------------|
|-6--3----------------------------------|
|-6--3--4-4-4-4-4--8-8-8--6-6-6---------|
|-4--1--4-4-4-4-4--8-8-8--6-6-6---------|
|-------2-2-2-2-2--6-6-6--4-4-4---------|

0:15
---------------------------------------------------
----4v-------4-6-6h7p--6-4------------4v-----------
--6----6v--6----------------6-6--3--6----6---------
---------------------------------------------------
---------------------------------------------------
---------------------------------------------------

--------------------6-4------------------9-8-9--
---4-6-6h7p--6-4---------7--6h7p--6--4v-----------
-6----------------6-------------------------------
--------------------------------------------------
--------------------------------------------------
--------------------------------------------------

--11-9-8--------------------------------
----------11-9-8------------------------
------------------11-10-8----------------
--------------------------11-10-8--------
----------------------------------11/0---
-----------------------------------------

Solo chequen los tiempos bien, denle justo al compás adecuado
y saldra perfecto
0:30  VERSOS
--------------     Intentando el destrozarme
--------------     mientras yo buscaba cosas
--6--3--------     sabias que decir en mi defensa
--6--3--6--4--     pero no las aceptas ya ya ya me canse
--4--1--6--4--
--------4--2--




0:45 Me canse de ti, en tus mentiras yo cai, pero amortigûe
la caida pues del mejor aprendí
Segunda voZ: mira mejor ahora estoy

--------------------
--------------------
--------------------    X2 ojo con los tiempos
--8-8--6-6--4-4-4-4-     ARREGLO 1
--8-8--6-6--4-4-4-4-
--6-6--4-4--2-2-2-2-

1:01 CORO:
Sabes bien se me dificulta hacerte saber
se me dificulta ver nada es de tu agrado
sabes que te amo y no lo aguanto, no lo aguanto

Y fijate que los dos prometimos algo que no se cumplió
me lo hiciste otra vez, ya no lo puedo creer
ojala y un dia se te regrese

|-------------------------|
|-------------------------|
|-6-3---------------------|
|-6-3-4-4--8-8-8-8-8-8----|
|-4-1-4-2--8-8-8-8-8-8----|
|-----2-2--6-6-6-6-6-6----|

1:01 EN EL CORO LA OTRA GUITARRA TOCA:

|----------------------------------------------
|----------------------------------------------
|-10-10-10h11-11-10-15-13/11-10-10-10h11-10v---
|----------------------------------------------
|----------------------------------------------
|----------------------------------------------

|----------------------------------------------------
|----------------------------------------------------
|-15/13-13-11-11-11-11-11-11-11/10-10-10-10-8-8-8V---
|----------------------------------------------------
|----------------------------------------------------
|----------------------------------------------------

Segunda Voz: Rikcy
Quisiera poder odiarte
Me haría las cosas más fácil
Quisiera poder, Quisiera poder

|---------------------------
|---------------------------
|--6-3----------------------
|--6-3-4-4-8-6--6-6-6-6-----
|--4-1-4-4-8-8--6-6-6-6-----
|------2-2-6-6--4-4-4-4-----


Se Repiten los versos y los demás acordes del coro

nunca reconocerias una cosa buena ni aunque este enfrente y te
corte la garganta
eso seria interesante Segunda voz:Ricky ya ya ya termino
todo termino



ARREGLO 1

te perdiste del mejor
y siempre te dije muchas veces que yo soy el mejor
SEGUNDA VOZ: Rikcy  yo seré el mejoooooorrr

CORO

MINUTO 2:55
LUEGO VA EL INTRO CON EL QUE SE EMPEZO AL SEG. 0:15
MAS UN ARREGLO ESTA ES LA GUITARRA DE ARTURO
Y PUES LA SEGUNDA GUITARRA LA DE PEPE TERMINA CON EL CORO


---------------------------------------------------
----4v-------4-6-6h7p--6-4------------4v-----------
--6----6v--6----------------6-6--3--6----6---------
---------------------------------------------------
---------------------------------------------------
---------------------------------------------------

----------------------6-4------------------9--8--6-4h6p-4v--
-----4-6-6h7p--6-4---------7--6h7p--6—-4v-------------------
---6----------------6---------------------------------------
------------------------------------------------------------
------------------------------------------------------------
------------------------------------------------------------

----------------------------------------------------------------
-7-6-4---4v------4-6-6h7p--6-4------------4v-----4-6-6h7-6-4----
-------6----6v-6----------------6-6--3--6----6v-6------------6-6
----------------------------------------------------------------
----------------------------------------------------------------
----------------------------------------------------------------

AL FINAL TERMINA CON LA GUITARRA DE PEPE CON SEMIDISTORSIÓN PARA
QUE SE ESCUCHEEN UN SONIDO ENTRE ACUSTICO Y UN POCO PESADO
-4-4--1-1--2-2--1-4-|
-6-6--2-2--2-2--2-4-|
-6-6--3-3--3-3--3-5-|
-6-6--3-3--4-4--3-6-|
-4-4--1-1--4-4--1-6-|
-4-4--1-1--2-2--1-4-|

Y PUES EL ACORDE FINAL ES:
|----4-----|
|----6-----|
|----6-----|
|----6-----|
|----4-----|
|4-4-4-----|Fuente: Tus acordes