a b c d e f g h i j k l m n o p q r s t u v w x y z 0-9

3 + 1

Panda

F#
G#
D#
C#
			
Bueno esta es la versión correcta y completa de esta rola,
las demás tablaturas les faltan cosas,
y otras estan incorrectas o están mal los tonos
la verdad me ayude un poco del DV de panda
para sacar la versión 100 correcta:
DEDICADA PARA ISABEL,

Afinacion:
d#g#c#f#a#d# [todo medio tono atras, como en el dvd]
y no como es tradicionalmente eBGDAM
es más facil si tienes afinador, solo ponle un Bemol [B]
medio tono atras

ESTA ES LA PRIMER GUITARRA
Intro: [Estos son armónicos]
d#--------------------------------------------
A#--------------------------------------------
F#------------------------[5]-----------------  [x4]
C#--[12]----[7]----[5]----------[9]------[5]--
G#--------------------------------------------
D#--------------------------------------------

MIENTRAS LA SEGUNDA GUITARRA EN EL INTRO TOCA ESTO
Es lo mismo despues en el seg. 0:15 solo vean y chequen los tiempos
|---------------------------------------|
|---------------------------------------|
|-7--4----------------------------------|
|-7--4--5-5-5-5-5--9-9-9--7-7-7---------|
|-5--2--5-5-5-5-5--9-9-9--7-7-7---------|
|-------3-3-3-3-3--7-7-7--5-5-5---------|

0:15
d#---------------------------------------------------
A#----5v-------5-7-7h8p--7-5------------5v-----------
F#--7----7v--7----------------7-7--4--7----7---------
C#---------------------------------------------------
G#---------------------------------------------------
D#---------------------------------------------------

d#--------------------7-5------------------10-9-10--
A#---5-7-7h8p--7-5---------8--7h8p--7--5v-----------
F#-7----------------7-------------------------------
C#--------------------------------------------------
G#--------------------------------------------------
D#--------------------------------------------------

d#--12-10-9--------------------------------
A#----------12-10-9------------------------
F#------------------12-11-9----------------
C#--------------------------12-11-9--------
G#----------------------------------12/0---
D#-----------------------------------------

Solo chequen los tiempos bien, denle justo al compás adecuado
y saldra perfecto
0:30  VERSOS
d#--------------     Intentando el destrozarme
A#--------------     mientras yo buscaba cosas
F#--7--4--------     sabias que decir en mi defensa
C#--7--4--7--5--     pero no las aceptas ya ya ya me canse
G#--5--2--7--5--
D#--------5--3--




0:45 Me canse de ti, en tus mentiras yo cai, pero amortigûe
la caida pues del mejor aprendí
Segunda voZ: [mira mejor ahora estoy]
d#--------------------
A#--------------------
F#--------------------    [X2] [ojo con los tiempos]
C#--9-9--7-7--5-5-5-5-     ARREGLO 1
G#--9-9--7-7--5-5-5-5-
D#--7-7--5-5--3-3-3-3-

1:01 CORO:
Sabes bien se me dificulta hacerte saber
se me dificulta ver nada es de tu agrado
sabes que te amo y no lo aguanto, no lo aguanto

Y fijate que los dos prometimos algo que no se cumplió
me lo hiciste otra vez, ya no lo puedo creer
ojala y un dia se te regrese

d#|-------------------------|
A#|-------------------------|
F#|-7-4---------------------|
C#|-7-4-5-5--9-9-7-7-7-7----|
G#|-5-2-5-3--9-9-7-7-7-7----|
D#|-----3-3--7-7-5-5-5-5----|

1:01 EN EL CORO LA OTRA GUITARRA TOCA:

d#|----------------------------------------------
A#|----------------------------------------------
F#|-11-11-11h12-12-11-16-14/12-11-11-11h12-11v---
C#|----------------------------------------------
G#|----------------------------------------------
D#|----------------------------------------------

d#|----------------------------------------------------
A#|----------------------------------------------------
F#|-16/14-14-12-12-12-12-12-12-12/11-11-11-11-9-9-9V---
C#|----------------------------------------------------
G#|----------------------------------------------------
D#|----------------------------------------------------

Segunda Voz: Rikcy
Quisiera poder odiarte
Me haría las cosas más fácil
Quisiera poder, Quisiera poder

d#|---------------------------
A#|---------------------------
F#|--7-4----------------------
C#|--7-4-5-5-9-9--7-7-7-7-----
G#|--5-2-5-5-9-9--7-7-7-7-----
D#|------3-3-7-7--5-5-5-5-----


Se Repiten los versos y los demás acordes del coro

nunca reconocerias una cosa buena ni aunque este enfrente y te
corte la garganta
eso seria interesante Segunda voz:Ricky [ya ya ya termino]
todo termino

ARREGLO 1

te perdiste del mejor
y siempre te dije muchas veces que yo soy el mejor
SEGUNDA VOZ: Rikcy  [yo seré el mejoooooorrr]

CORO

MINUTO 2:55
LUEGO VA EL INTRO CON EL QUE SE EMPEZO AL SEG. 0:15
MAS UN ARREGLO ESTA ES LA GUITARRA DE ARTURO
Y PUES LA SEGUNDA GUITARRA LA DE PEPE TERMINA CON EL CORO


d#---------------------------------------------------
A#----5v-------5-7-7h8p--7-5------------5v-----------
F#--7----7v--7----------------7-7--4--7----7---------
C#---------------------------------------------------
G#---------------------------------------------------
D#---------------------------------------------------

d#----------------------7-5------------------10-9--7-5h7p-5v--
A#-----5-7-7h8p--7-5---------8--7h8p--7--5v-------------------
F#---7----------------7---------------------------------------
C#------------------------------------------------------------
G#------------------------------------------------------------
D#------------------------------------------------------------

d#----------------------------------------------------------------
A#-8-7-5---5v------5-7-7h8p--7-5------------5v-----5-7-7h8-7-5----
F#-------7----7v-7----------------7-7--4--7----7v-7------------7-7
C#----------------------------------------------------------------
G#----------------------------------------------------------------
D#----------------------------------------------------------------

AL FINAL TERMINA CON LA GUITARRA DE PEPE CON SEMIDISTORSIÓN PARA
QUE SE ESCUCHEEN UN SONIDO ENTRE ACUSTICO Y UN POCO PESADO

d#-5-5--2-2--3-3--2-5-|
A#-7-7--3-3--3-3--3-5-|
F#-7-7--4-4--4-4--4-6-|
C#-7-7--4-4--5-5--4-7-|
G#-5-5--2-2--5-5--2-7-|
D#-5-5--2-2--3-3--2-5-|

Y PUES EL ACORDE FINAL ES:
d#|----5-----|
A#|----7-----|
F#|----7-----|
C#|----7-----|
G#|----5-----|
D#|5-5-5-----|

BUENO ESO ES TODO, ESPERO Y LES GUSTE ESTA TRASCRIPCIÓN,
 SALUDOS PARA LA PREPA 6
PARA MEMO, KARLA, ARTURO, LUIS Y TODA LA BANDA, PRONTO NOS VEMOSFuente: Tus acordes