a b c d e f g h i j k l m n o p q r s t u v w x y z 0-9

3+1

Panda

			
Esta canción se toca con la guitarra afinada en bemol ósea ½ tono atrás si quieres afinar la guitarra así pues solo tocas 
el 1er trasto de la 6ta cuerda, sueltas, y aprietas la 6ta cuerda hasta que al tocarla al aire sin presionar ningún trasto 
suene igual que cuando la tocaste en el 1er trasto, el resto de las cuerdas se afinan, ya que la 6ta cuerda está afinada en bemol, de igual manera que cuando se afina normalmente.

      C  Un solo rasgueo hacia abajo
eb|-----3-8-13-12-8---| 
bb|---1---------------|
gb|-------------------|
Db|-------------------|
Ab|-------------------|
Eb|-------------------|
      Am Un solo rasgueo hacia abajo
eb|-----3-8-13-12-8---|
bb|---1---------------|
gb|-------------------|
Db|-------------------|
Ab|-------------------|
Eb|-------------------|
      F Aquí ya son muchos
eb|-----3-8-13-12-8---|
bb|---1---------------|
gb|-------------------|
Db|-------------------|
Ab|-------------------|
Eb|-------------------|
      Am    G Aquí también son muchos
eb|-----3-8-13-12-8---|
bb|---1---------------|
gb|-------------------|
Db|-------------------|
Ab|-------------------|
Eb|-------------------|

     C                  Am                     F             Am     G
eb|--------------------------------------------5-3-1-0h1-0---8-7-8h9--
bb|-----------5h6-5-------------------5h6-5----------------3----------
gb|--5-7-5-5-7-----7-5-5---5-5-7-5-5-7-----7-5------------------------
Db|----------------------7--------------------------------------------
Ab|-------------------------------------------------------------------
Eb|-------------------------------------------------------------------

-9/876543210|(EN ESTA PARTE DESLIZAS DESDE EL 9° HASTA EL 1° Y SUELTAS
------------|
------------|
------------|
------------|

C                Am
Te encantó el destrozarme
                    G     F
Mientras yo buscaba cosas sabias
             C
Que decir en mí defensa
 Am                  G            F
Pero no las aceptas (ya ya ya) me cansé

              Am
Me cansé de ti
           G      F
En tus mentiras yo caí
           Am                       G    F
Pero amortigüe la caída pues del mejor aprendí

(Mira mejor estoy)
(CORO)

 C                            Am
Sabes bien se me dificulta hacerte saber
                 F
Se me dificulta ver

Nada es de tu agrado
                   Am             G
Sabes que te amo y no lo aguanto no lo aguanto

      C                               Am
y fíjate que los dos prometimos algo que no se cumplió
                    F
Me lo hiciste otra vez ya no lo puedo creer
                Am      G    F
Ojalá y un día se te regrese eee

C
Quisiera poder quisiera poder odiarte
 Am
Haría las cosas más fácil
F                               Am   G
Quisiera poder quisiera poder

C              Am
Nunca reconocerías una cosa buena
G              F
Ni aunque este de frente y te
            C
Corte la garganta
 Am              G    F
Eso sería interesante eee (ya ya ya terminó)

         Am
Todo terminó
       G        F
Te perdiste del mejor
               Am           G               F
Y siempre te dije muchas veces que yo soy el mejor

Yo soy el mejor

(CORO)

C                            Am
Sabes bien se me dificulta hacerte saber
                F
Se me dificulta ver

Nada es de tu agrado
                   Am             G
Sabes que te amo y no lo aguanto no lo aguanto

      C                              Am
Y fíjate que los dos prometimos algo que no se cumplió
                    F
Me lo hiciste otra vez ya no lo puedo creer
               Am       G    F
Ojalá y un día se te regrese eee

SOLO
eb|-------------------------------------------5-3-1-0h1-0---8-7-8h9---
bb|----------5h6-5-------------------5h6-5----------------3-----------
gb|-5-7-5-5-7-----7-5-5---5-5-7-5-5-7-----7-5-------------------------
Db|---------------------7---------------------------------------------
Ab|-------------------------------------------------------------------
Eb|-------------------------------------------------------------------

8-7-5-4h5----------------------------------------------
---------6-5-----------5h6-5---------------5h6-5-------
------------7-5-7-5-5-7-----7-5-5--?5-5-7-5-5-----7-5-5
----------------------------------7--------------------
-------------------------------------------------------
-------------------------------------------------------


(CORO) (En esta parte es más calmado el ritmo)

C                            Am
Sabes bien se me dificulta hacerte saber
                 F
Se me dificulta ver

Nada es de tu agrado
                   Am             G
Sabes que te amo y no lo aguanto no lo aguanto

      C                               Am
Y fíjate que los dos prometimos algo que no se cumplió
                    F
Me lo hiciste otra vez ya no lo puedo creer
                Am      G    F
Ojalá y un día se te regrese eee

Fuente: Tusacordes