a b c d e f g h i j k l m n o p q r s t u v w x y z 0-9

3+1

Panda

			
|-------------------14--13--------
B|--------------14-------------14--
G|---------13------------------------
D|---11------------------------------
A|-------------------------------------
E|-------------------------------------


ESTA ES LA PRIMER GUITARRA
Intro: Estos son armónicos
e|--------------------------------------------
B|--------------------------------------------
G|------------------6-----11-10---6--- x4
D|--11----6-------------------------------
A|--------------------------------------------
E|--------------------------------------------

MIENTRAS LA SEGUNDA GUITARRA EN EL INTRO TOCA ESTO

|---------------------------------------|
|---------------------------------------|
|-6--3----------------------------------|
|-6--3--4-4-4-4-4--8-8-8--6-6-6---------|
|-4--1--4-4-4-4-4--8-8-8--6-6-6---------|
|-------2-2-2-2-2--6-6-6--4-4-4---------|

0:15
---------------------------------------------------
----4v-------4-6-6h7p--6-4------------4v-----------
--6----6v--6----------------6-6--3--6----6---------
---------------------------------------------------
---------------------------------------------------
---------------------------------------------------

--------------------6-4------------------9-8-9--
---4-6-6h7p--6-4---------7--6h7p--6--4v-----------
-6----------------6-------------------------------
--------------------------------------------------
--------------------------------------------------
--------------------------------------------------

--11-9-8--------------------------------
----------11-9-8------------------------
------------------11-10-8----------------
--------------------------11-10-8--------
----------------------------------11/0---
-----------------------------------------

Fuente: tusacordes.com