a b c d e f g h i j k l m n o p q r s t u v w x y z 0-9

Love Buzz

Nirvana

			
INTRO bass tabbed for guitar:
e-----------------------|
b-----------------------|
g-----------------------|
d-----------------------| x8
a-----------------4/5/4-|
e--5--x--3--5--6--------|

INTRO 2:
e-------------------------------------------------------------------|
b--2-----------------2-----------------2-2-2-----------------2-2-2--|
g--2-----------------2-----------------2-2-2-----------------2-2-2--|
d--2-----------------2-----------------2-2-2-----------------2-2-2--| x1
a--0-----------------0-----------------0-0-0-----------------0-0-0--|
e-------------------------------------------------------------------|

THEN PLAY:
e-----0--0--5/3/0-----------------|
b--2----------------5/3/0---------|
g--2-----------------------4/2/0--|
d--2------------------------------| x4
a--0------------------------------|
e---------------------------------|

THEN PLAY:
e---------------------|
b---------------------|
g--------------6/7/8--|
d--7--5--7--8---------| x4
a---------------------|
e---------------------|

THEN PLAY:
e-----0--0--5/3/0-----------------|
b--2----------------5/3/0---------|
g--2-----------------------4/2/0--|
d--2------------------------------| x4
a--0------------------------------|
e---------------------------------|

VERSE 1 bass tabbed for guitar:
e------------------------|
b------------------------|
g------------------------|
d------------------------| x8
a-----------------4/5/4--|
e--5--x--3--5--6---------|

CHORUS:
e------------------------------------------------------------------|
b--2-----------------2-----------------2-2-2----------------2-2-2--|
g--2-----------------2-----------------2-2-2----------------2-2-2--|
d--2-----------------2-----------------2-2-2----------------2-2-2--| x1
a--0-----------------0-----------------0-0-0----------------0-0-0--|
e------------------------------------------------------------------|

THEN PLAY:
e-----0--0--5/3/0-----------------|
b--2----------------5/3/0---------|
g--2-----------------------4/2/0--|
d--2------------------------------| x4
a--0------------------------------|
e---------------------------------|

THEN PLAY:
e---------------------|
b---------------------|
g--------------6/7/8--|
d--7--5--7--8---------| x4
a---------------------|
e---------------------|

SOLO 1:
e----------------------------)--------------------------------------------|
b--/8--8--7--7--7--7--5--7--7--7--7--7--7--5--5----------)--3--0----------|
g------------------------------------------------7--7--5-------)-----)----|
d----------------------------------------------------------------7--7--7--|
a-------------------------------------------------------------------------|
e-------------------------------------------------------------------------|

e--------------------------------------------------------------------------|
b-----------------------------)--------------------------------------------|
g--9\7--6--5--0-----0-----5--7--7--6---------------------------------------|
d----------------0-----7--------------5--7---------------)-----------------|
a----------------------7--------------------6--3--0--3--7^--7--5--3--------|
e---------------------------------------------------------------------5--3-|
[ Tab from: http://www.guitaretab.com/n/nirvana/13409.html ]
e-------------------------------------------------------------------------|
b---------------------------------6/8--8/10--10/8-------------------------|
g----------------------2--4--4/5--5/7--7/-9---9/7-------------------------|
d--------------2--2/4-----------------------------------------------------|
a---------)---------------------------------------------------------------|
e--5--5--5----------------------------------------------------------------|

VERSE 2 bass tabbed for guitar
e------------------------|
b------------------------|
g------------------------|
d------------------------| x8
a-----------------4/5/4--|
e--5--x--3--5--6---------|

CHORUS:
e-------------------------------------------------------------------|
b--2-----------------2-----------------2-2-2-----------------2-2-2--|
g--2-----------------2-----------------2-2-2-----------------2-2-2--|
d--2-----------------2-----------------2-2-2-----------------2-2-2--| x1
a--0-----------------0-----------------0-0-0-----------------0-0-0--|
e-------------------------------------------------------------------|

THEN PLAY:
e-----0--0--5/3/0-----------------|
b--2----------------5/3/0---------|
g--2-----------------------4/2/0--|
d--2------------------------------| x4
a--0------------------------------|
e---------------------------------|

Then the bass guitar plays. Then you play:

SOLO 2 (I'm not 100 sure on this, but I think it's right):
e----------------------------------12-12-12-12-12-12-12-12-12-12-12-12-|
b---------)-----------------13--/--13-13-13-13-13-13-13-13-13-13-13-13-|
g-----5--7--7--5-------------------------------------------------------|
d--7--------------7--5--7--7-------------------------------------------|
a----------------------------------------------------------------------|
e----------------------------------------------------------------------|

e--------------------------------------------------------------------------|
b--------------------------------------------------------------------------|
g--------------------------------------------------------------------------|
d------------)--)-----------------------------------------9--9-10-10-10-12-|
a--3--5--3--5--5--5--------------------0--0------5--7--7--9--9-10-10-10-12-|
e--------------------3--3--2--0--2--3--------/7----------------------------|

e---------------------------------------------------------------------|
b--3----------------------------------------------------------------|
g--2----------------------------------------------------------------|
d------12-12-14-15-15-15-15-17/---------------------------------------|
a------12-12-14-15-15-15-17-17/---------------------------------------|
e---------------------------------------------------------------------|

THEN PLAY:
e-----0--0--5/3/0-----------------|
b--2----------------5/3/0---------|
g--2-----------------------4/2/0--|
d--2------------------------------| x4
a--0------------------------------|
e---------------------------------|

THEN PLAY:
e---------------------|
b---------------------|
g--------------6/7/8--|
d--7--5--7--8---------| X8
a---------------------|
e---------------------|

END:
e-----------------------------------------------------------------------|
b--2----------2----------2----------2---2-2-2-2-2-2-2-2-2-2-2-2-2-2-2-2-|
g--2----------2----------2----------2---2-2-2-2-2-2-2-2-2-2-2-2-2-2-2-2-|
d--2----------2----------2----------2---2-2-2-2-2-2-2-2-2-2-2-2-2-2-2-2-|
a--0----------0----------0----------0---0-0-0-0-0-0-0-0-0-0-0-0-0-0-0-0-|
e-----------------------------------------------------------------------|Fuente: Tus acordes