a b c d e f g h i j k l m n o p q r s t u v w x y z 0-9

Lo Bailan Rochas Y Chetas

Nene Malo

			
e|-----------------|---1-------------| 
B|---1-3-3-3-------|-3---3-3-3-------|
G|-2---------------|-----------------|
D|-----------------|-----------------|
A|-----------------|-----------------|
E|-----------------|-----------------|x2

e|-----------------|---1-3-1---------|-----------------|
B|---1-------------|-3-------3-1-----|-3-1-------------|
G|-2---------------|-------------3---|-----2-0---------|
D|-----------------|-----------------|-----------------|
A|-----------------|-----------------|-----------------|
E|-----------------|-----------------|-----------------|
                   |______x3_______|Fuente: Tus acordes