a b c d e f g h i j k m n o p q r s t x v w y z 0-9

Este Es El Tiempo

Nancy Amancio

			
aqui esta el :SOLO: de la cancion Este Es El Tiempo de Nancy Amancio.....
es facil!!


e)--13s14---------------|----------------------|
B)---------14--15--15/16|---16-15-14--------13-|
G)----------------------|-------------13s14----|
D)----------------------|----------------------|
A)----------------------|----------------------|
E)----------------------|----------------------|



e)--18s20---18-16-15-----------------------|-16-15-13------13-|
B)-------------------16----16--18/20-18/21-|---------13s14----|
G)----------------------15-----------------|------------------|
D)-----------------------------------------|------------------|
A)-----------------------------------------|------------------|
E)-----------------------------------------|------------------|



e)-16-16-15-15-13-13--------------------|------------------------|
B)--------------------17-17-14-14-13-13-|------------------------|
G)--------------------------------------|13-13s15-13--12-13---10~|
D)--------------------------------------|------------------------|
A)--------------------------------------|------------------------|
E)--------------------------------------|------------------------|


¡¡¡¡¡DIOS LOS BENDIGA!!!!!Fuente: Tus acordes