a b c d e f g h i j k l m n o p q r s t u v w x y z 0-9

Yerba Mate Taragui - Los Mates De Tu Vida

Musica De Tv

			
E|----------------------3---2----------|
B|---3------------3-------------5------|
G|-------0h2--h4----------------------|
D|-------------------------------------
A|-------------------------------------|
E|-------------------------------------|

E|-----------------------33--2---------|
B|--------------3---1-----------5--3---|
G|---4---2--4--------------------------|
D|--------------------------------------
A|-------------------------------------|
E|-------------------------------------|

E|--------------------------------------
B|------------3------------------------
G|---0h2--h4------4---2---0--------fin-..
D|------------------------------------..
A|-------------------------------------|
E|-------------------------------------|

Fuente: tusacordes.com