a b c d e f g h i j k l m n o p q r s t u v w x y z 0-9

Titanic

Musica De Tv

			
Intro:

   e--12--14--16  14--12--14--19  17--16----------------
   b------------  --------------  --------17------------
   g------------  --------------  ------------18------16
   d------------  --------------  ----------------19----
   a------------  --------------  ----------------------
   e------------  --------------  ----------------------


   e--12--14--16  14--12--14--19  16--19--21--19--14-----
   b------------  --------------  -----------------------
   g------------  --------------  -----------------------
   d------------  --------------  -----------------------
   a------------  --------------  -----------------------
   e------------  --------------  -----------------------



bueno eso estodo esta re facil aprovehnlo

Fuente: tusacordes.com