a b c d e f g h i j k l m n o p q r s t u v w x y z 0-9

Titanic

Musica De Tv

			
   e-------------------------------------------
   B------0---------3---0----------------------
   G--0-2----2-0-2--------2-0------------------
   D---------------------------2-0-------------
   A-------------------------------------------
   E-------------------------------------------

   e----------------------------0--------------
   B-------0--1-0-------3--0-3-----3-0---------
   G--0-2---------2-0-2-----------------2------
   D-------------------------------------------
   A-------------------------------------------
   E-------------------------------------------


   e--0-2-3--2-0--------0--------------------------------
   B-------------3--1-3---3-0---------0-1-0----0---------
   G--------------------------2---0-2------2-0---2-0-0---
   D-----------------------------------------------------
   A-----------------------------------------------------
   E-----------------------------------------------------

   e-------------------------------------------
   B-----------------------0-------------------
   G--0-0-0-0---0-----0--2---2-----------------
   D----------4---4-4--------------------------
   A-------------------------------------------
   E-------------------------------------------

   e-------------------------------------------
   B-------------------------------------------
   G--0-0-0-0---0------0--2--------------------
   D----------4----4-4-------0-----------------
   A-------------------------------------------
   E-------------------------------------------

   e-------------------------------------------------------
   B----------3--1-0----0-1-0-------------------0----------
   G--0--2-----------2---------2-0---0-----0--2---2---0-0--
   D--------0----------------------4---4-4-----------------
   A-------------------------------------------------------
   E-------------------------------------------------------

Fuente: tusacordes.com