a b c d e f g h i j k l m n o p q r s t u v w x y z 0-9

Titanic

Musica De Tv

D
G
C
Em
			
      Em7           Dsus4            C9            Dsus4     D
E||--------3-------------3-------|--------3-------------3---2--|
B||------3----3--------3----3----|------3----3--------3-----3--|
G||----0--------0----0--------0--|----0--------0----0----------|
D||----------------0-------------|----------------0------------|
A||------------------------------|--3--------------------------|
E||--0---------------------------|-----------------------------|


  Em7           Dsus4            C9            Dsus4     D
--------3-------------3----5--|--------3-------------3---2--|
------3----3--------3----3----|------3----3--------3-----3--|
----0--------0----0-----------|----0--------0----0----------|
----------------0-------------|----------------0------------|
------------------------------|--3--------------------------|
--0---------------------------|-----------------------------|


Estrofa:
-------

    G           D              C9          G     D
|---3---3----3--2--3-----3--|--2--3-----5--7-----5-----|
|---0--------0--3--------3--|-----------3-----0-----3--|
|*--0-----------------------|--------------------------|
|*--------------0-----0-----|--------------5-----0-----|
|---------------------------|--3-----3-----------------|
|---3-----3-----------------|--------------------------|


  G           D              C9          C
--3-----3-----2--3-----2--|--------------------------0^2-|
--0-----0-----3--------3--|--3-----3-------------1^3-----|
-----0-----0--------------|-----0-----0--------0---------|
--------------0-----0-----|----------------0^2-----------|
--------------------------|--3-----------3---------------|
--3-----------------------|------------------------------|


  G           D              C9          G     D
--3---3----3--2--3-----3--|--2--3-----5--7-----5-----|
--0--------0--3--------3--|-----------3-----0-----3--|
--0-----------------------|--------------------------|
--------------0-----0-----|--------------5-----0-----|
--------------------------|--3-----3-----------------|
--3-----3-----------------|--------------------------|


  G           D              C9                C  D
--3-----3-----2--3-----2--|--------------------0--2--|
--0-----0-----3--------3--|--3-----3-----3-----------|
-----0-----0--------------|-----0-----0-----0--0--2--|
--------------0-----0-----|--------------------------|
--------------------------|--3-----------3-----------|
--3-----------------------|--------------------------|

Refran:
------

  Em          D              C9           D
--3--------3--5--------5--|--10-----8--7--5-----7--8--|
-----0-----0-----3-----3--|--8------8--8--------------|
--------0-----------2-----|------------------7--------|
--------------0-----------|---------------0-----------|
--------------------------|---------------------------|
--0-----------------------|------8--------------------|


  Em          D              C           D     C  D
--7-----5--3--2--3-----2--|--0-----0-----2-----0--2--|
-----0-----0--3--------3--|--1-----1-----3-----------|
--------------------------|-----0-----0-----2--------|
--------------0-----0-----|--------------0--------0--|
--------------------------|--3-----------------3-----|
--0-----------------------|--------------------------|


  Em          D              C9           D
--3--------3--5--------5--|--10-----8--7--5-----7--8--|
-----0-----0-----3-----3--|--8------8--8--------------|
--------0-----------2-----|------------------7--------|
--------------0-----------|---------------0-----------|
--------------------------|---------------------------|
--0-----------------------|------8--------------------|


  Em          D              C9          D6
--7-----5--3--2--3-----2--|--2--3-----5--7-----5-----|
-----0-----0--3--------3--|--------------------------|
--------------------------|-----------------7-----7--|
--------------0-----0-----|--------------0-----------|
--------------------------|--3-----3-----------------|
--0-----------------------|--------------------------|


  G                            G
--3-----3-----3-----3------||--3----------------||
---------------------------||--3----------------||
-----0-----0-----0-----0--*||--0----------------||
--------------------------*||--0----------------||
---------------------------||--2----------------||
--3------------------------||--3----------------||
 

Fuente: tusacordes.com