a b c d e f g h i j k l m n o p q r s t u v w x y z 0-9

The Legend Of Zelda - Overworld Teme

Musica De Tv

			
intro

e|--------------------------------------------------------------------|
B|--------------------------------------------------------------------|
G|--------------------------------------------------------------------|
D|-8-------8--6---6-----8------8-7---7--------------------------------|
A|----8-8-------8----------9-9-----8----------------------------------|
E|--------------------------------------------------------------------|


e|--------------------------------------------------------------------|
B|-----------------------------7-9-11--11-11-9-7-9-7------------------|
G|--------------7-8-10---10-10----------------------10---10-8-810-----|
D|----8---88-10-------------------------------------------------------|
A|------8-------------------------------------------------------------|
E|--------------------------------------------------------------------|


e|--------------------------------------------------------------------|
B|--------------------------------------------------------------------|
G|---11--10-8-------810â??8----------7-9-12-10--------------------------|
D|------------11-11-------11-10-10------------------------------------|
A|--------------------------------------------8-8-8-8-8-8-8-----------|
E|--------------------------------------------------------------------|

Fuente: tusacordes.com