a b c d e f g h i j k l m n o p q r s t u v w x y z 0-9

The Big Bang Theory

Musica De Tv

			
C                     D

e|--------------------------------|-------------------------|
b|----------1---------------------|--3----------------------|
g|--------------0---------------2-|-----2-------------------|
d|------2-------------------0-----|-------------------------|
a|---3----------------------------|-------------------------|
E|--------------------------------|-------------------------|

      G      D      Em

e|----3------2------0----------------|----------------------|
b|----3------3------0----------------|----------------------|
g|----0------2------0----------------|----------------------|
d|----0------0------2----------------|----------------------|
a|----2------0------2----------------|----------------------|
E|----3------0------0----------------|----------------------|

  C                     D

e|--------------------------------|-------------------------|
b|----------1---------------------|--3----------------------|
g|--------------0---------------2-|-----2-------------------|
d|------2-------------------0-----|-------------------------|
a|---3----------------------------|-------------------------|
E|--------------------------------|-------------------------|

      G      D      Em

e|----3------2------0----------------|----------------------|
b|----3------3------0----------------|----------------------|
g|----0------2------0----------------|----------------------|
d|----0------0------2----------------|----------------------|
a|----2------0------2----------------|----------------------|
E|----3------0------0----------------|----------------------|

Fuente: tusacordes.com