a b c d e f g h i j k l m n o p q r s t u v w x y z 0-9

Terminator

Musica De Tv

			
E|--------------------------------6-4----------------------|    
B|-4-6-7----6--------4-6-7----6----------4-6-7----6--------|    
G|------------6-----------------6-------------------6------|    
D|--------------4-------------------------------------6----|    
A|---------------------------------------------------------|    
E|---------------------------------------------------------|



E|----------------------|    
B|----------------------|    
G|----------------------|    
D|-4------4-------------|    
A|------6-----8----6----|    
E|----------------------|

Fuente: Tusacordes