a b c d e f g h i j k l m n o p q r s t u v w x y z 0-9

Teletubies

Musica De Tv

			
riff: 1

 e|----------------------|
 b|----------------------|
 g|---------2------------|
 D|-5-5-2-5---3--5-2-0---|
 A|----------------------|
 E|----------------------|

  TINKY WINKY,DIPSY,LA LA,PO...


riff:2
 e|----------------------|
 b|-------------------0-1|
 g|----------22---2------|
 D|-5-5-2-5-----3---5----|
 A|----------------------|
 E|----------------------|



  TELETUBIES, TELETUBIES DIGAN HOLA...

  verso 1:

  D,G,D,A,D,G,A,D

  verso 2:
  
  E,A,E,B,E,A,B













Fuente: tusacordes.com