a b c d e f g h i j k l m n o p q r s t u v w x y z 0-9

Tapion

Musica De Tv

			
e-----------------------8--6--4--4/6-----------6---------------------------6-4-3-----------3--|
B--------6-----------6----------------6-----6-----6--8--9------------9--9--------4-----4-----|
G--5--5-----5-----5----------------------7-----------------8------8-----------------5--------|
D--------------6----------------------------------------------10-----------------------------|
A--------------------------------------------------------------------------------------------|
E--------------------------------------------------------------------------------------------|

e-----------------------8--6--4--4/6-----------6-------------------------------------------------|
B--------6-----------6----------------6-----6-----6--8--9------------9--8--8--6--4--4/6---------6|
G--5--5-----5-----5----------------------7-----------------8------8----------------------5-----5-|
D--------------6----------------------------------------------10----------------------------6----|
A------------------------------------------------------------------------------------------------|
E------------------------------------------------------------------------------------------------|


yo no la saque la hizo un amigo pero aki la subi yo xD
pa q la conoscan espero q les guste :P

Fuente: Tusacordes