a b c d e f g h i j k l m n o p q r s t u v w x y z 0-9

Star Wars

Musica De Tv

			
e|---------------------------------------------------------------
b|--------------------------------15--15--15-15-16-------------
g|12--12--12-12----15-12----15-12------------------15--------15
d|--------------13-------13---------------------------16--12---12
a|---------------------------------------------------------------
E|---------------------------------------------------------------


e|---------------------------------------------------------------
b|--19--19--19--18--17-16-15-16---14--13--12-11-10-11------------
g|------------------------------13-------------------------------
d|---------------------------------------------------------------
a|-----------------------------------------------------------------
E|-----------------------------------------------------------------


e|-----------------------------------------------------------------
b|-----------------------------------------------------------------
g|------12------15-12------15-12-----------------------------------
d|--12------12---------12------------------------------------------
a|-----------------------------------------------------------------
E|-----------------------------------------------------------------

Fuente: Tusacordes