a b c d e f g h i j k l m n o p q r s t u v w x y z 0-9

Star Wars

Musica De Tv

			

 
 
   
   e----------------------------------------------------
   B------------1--------1------------------------------
   G----0---------0--------0----------------------------
   D-------3-2-0----3-2-0-----3-2-3-0-------------------
   A--3-------------------------------------------------
   E----------------------------------------------------

   e----------------------------------------------------
   B------------1--------1------------------------------
   G----0---------0--------0----------------------------
   D-------3-2-0----3-2-0-----3-2-3-0-------------------
   A--3-------------------------------------------------
   E----------------------------------------------------

   e--------1-0----------0----------------1-0------3----
   B-------------3-1-1-3---3------------------3-1----3--
   G--0-2--2-----------------0--2--0-0-2----------------
   D----------------------------------------------------
   A----------------------------------------------------
   E----------------------------------------------------
 
   e--------1-0----------0------------------------------
   B-------------3-1-1-3---3----------------------------
   G--0-2--2-----------------0--2--0-0------------------
   D----------------------------------------------------
   A----------------------------------------------------
   E----------------------------------------------------
   
    ESTA PARTE VA RAPIDA 

   e----------------------------------------------------
   B--1-------------------------------------------------
   G----3-1-0-----------0-------------------------------
   D----------3-1-0-------------------------------------
   A-----------------3----------------------------------
   E----------------------------------------------------

    Y AQUI YA VA LENTO

   e----------------------------------------------------
   B----------------------------------------------------
   G----------------------------------------------------
   D----------------------------------------------------
   A--3--3--3--3-3-3--3--3--3--3-3-3--3-----------------
   E----------------------------------------------------

Fuente: tusacordes.com