a b c d e f g h i j k l m n o p q r s t u v w x y z 0-9

Star Wars

Musica De Tv

			
Star Wars
Punteo
e|-----------------------------|------------------------------
b|-----------------------------|--15-15-15-16-------16--------
g|--12-12-12----15-12----15-12-|--------------15-------15-----
d|-----------13-------13-------|-----------------16-------12--
a|-----------------------------|------------------------------
E|-----------------------------|------------------------------

e|-----------------------------|------------------------
b|--19-------19-18-17-15-13-12-|-----14-13-12-11-10-11--
g|-----12-12-------------------|--13--------------------
d|-----------------------------|------------------------
a|-----------------------------|------------------------
E|-----------------------------|------------------------

e|---------------------------
b|--16-----------------------
g|-----------15-12----15-12--
d|-----16-14-------13--------
a|---------------------------
E|---------------------------


Acordes:

e|---------------------------------|------------------------------
b|---------------------------------|------------------------------
g|-----------------10--------10----|------------------------------
d|--12--12--12--8--8--12--8--8--12-|--7--7--7--8--------8-----12--
a|--10--10--10--6-----10--6-----10-|--5--5--5--6--8--4--6--8--10--
E|---------------------------------|--------------6--2-----6------

e|--------------------------------|-----------------------
b|--------------------------------|-----------------------
g|--7----------7------------------|-----------------------
d|--5--12--12--5--11--10--9--7--8-|-----6--5--4--3--2--3--
a|-----10--10------9---8--7--5--6-|--6--4--3--2--1--0--1--
E|--------------------------------|--4--------------------

e|-----------------------------
b|-----------------------------
g|-----------10--------10------
d|--8--11--9--8--12--8--8--12--
a|--6---9--7-----10--6-----10--
E|-----------------------------

Fuente: tusacordes.com