a b c d e f g h i j k l m n o p q r s t u v w x y z 0-9

Star Wars Tema Darth Vader

Musica De Tv

			
e|-------------------|--------------------------|------------------
B|-------------------|--------------------------|------------------
G|-------------------|--------------------------|-2-----3-2-1-0----
D|-------------------|-2-2-2-3-0----------------|---0-0---------4--
A|-0-0-0---3-0---3-0-|-----------3---3-0--------|------------------
E|-------1-----1-----|-------------1------------|------------------

e|---------------|------------------||-----------------------------
B|---------------|------------------||-----------------------------
G|---------------|------------------||-----------------------------
D|-0-5-4-3-2-1-2-|------------------||-----------------------------
A|---------------|---0---3-0---3-0--||-----------------------------
E|---------------|-1---1-----1------||-----------------------------Fuente: Tus acordes