a b c d e f g h i j k l m n o p q r s t u v w x y z 0-9

Star Wars, 20th Century Fox Theme & Darth Vad

Musica De Tv

			
        'Star Wars, & 20th Century Fox'
_________________________________
-Afinación: EADGBe

*Transcripto por: Seba A.
*buenos aires, argentina, 2007 diciembre
*MSN o Email por cualquier duda o comentario: playing.the.angel_@hotmail.com
*por favor acordate de Votar y de Comentar este tema, si te gusta también no le den mala calificacion si no probaron tocar todo bien, esta 100 ok!
_________________________________



INTRO 20th Century Fox Intro, Fanfare, sería como los títulos de la película al principio
e|-11-11-11--11-11-12-11-12-11-11-11-11-------11----------------------------------------------------|
B|--------------------------------------15-16------------------------------------|
G|---------------------------------------------------------------------------|
D|---------------------------------------------------------------------------|
A|---------------------------------------------------------------------------|
E|---------------------------------------------------------------------------|

Fanfare Trompetas:
e|---------------------------------------------------------------------------|
B|----6-8-x-x-x-------------------------------------------------------------------|
G|--7-----x-x-x------12-15--16-15-16-15-----------------------------------------------------|
D|8------------10/14---------------------------------------------------------------|
A|---------------------------------------------------------------------------|
E|---------------------------------------------------------------------------|


STAR WARS:
Intro:
e|-------------------
B|-------------16-18-
G|15-15-15-----------
D|---------15--------
A|-------------------
E|-------------------
//repetir mucho hasta://

Parte Principal la conocida:
e|-------------------------18-------------------------18-------------------------|
B|--------18----16-15---------18------18---16-15---------18---16-15-16----------------------------|
G|15-------------------15------------------------15--------------------17v------------|
D|---------------------------------------------------------------------------|
A|---------------------------------------------------------------------------|
E|---------------------------------------------------------------------------|

e|---------------------------------------------------------------------------|
B|------15-16-15-------------15------------------------------------------------------|
G|---------------17-15-15-17----17--------14---------------------------------------------|
D|17-17-----------------------------17-17----15---------------------------------------|
A|---------------------------------------------------------------------------|
E|---------------------------------------------------------------------------|


e|---------------------------------------------------------------------------|
B|------15-16-15-------18------------------------------------------------------------|
G|---------------17-15----15-------------------------------------------------------|
D|17-17--------------------------------------------------------------------------|
A|---------------------------------------------------------------------------|
E|---------------------------------------------------------------------------|


e|---------------------------------------------------------------------------|
B|------15-16-15-------------15------------------------------------------------------|
G|---------------17-15-15-17----17-------14----------------------------------------------|
D|17-17----------------------------17-17----15-----------------------------------------|
A|---------------------------------------------------------------------------|
E|---------------------------------------------------------------------------|


e|6---------------------------------------------------------------------------|
B|--9-7-6---------6--------11-13-----------------------------------------------------|
G|--------8-6-5---------12--------------------------------------------------------|
D|--------------8-----------------15-15-------------------------------------------|
A|---------------------------------------------------------------------------|
E|---------------------------------------------------------------------------|

e|-------------------------18-------------------------18-------------------------|
B|--------18----16-15---------18------18---16-15---------18---16-15-16----------------------------|
G|15-------------------15------------------------15--------------------17v------------|
D|---------------------------------------------------------------------------|
A|---------------------------------------------------------------------------|
E|---------------------------------------------------------------------------|

e|-------------------------18-------------------------18-------------------------|
B|--------18----16-15---------18------18---16-15---------18---16-15-16----------------------------|
G|15-------------------15------------------------15--------------------17v------------|
D|---------------------------------------------------------------------------|
A|---------------------------------------------------------------------------|
E|---------------------------------------------------------------------------|


e|---------------------------------------------------------------------------|
B|------15-17-18v--15-15-----18-19vvv--18-19-15------------------------------------------------------|
G|15-17--------------------------------------------------------------------------|
D|---------------------------------------------------------------------------|
A|---------------------------------------------------------------------------|
E|---------------------------------------------------------------------------|


e|---------------------------------------8-8-8----------------------------------|
B|--------------------------9-9-9----------9-9------------------------------------|
G|-------------8-8-8--------------8-8-8--------------------------------------------|
D|8-8-8--------------8-8-8---------------------------------------------------------|
A|------8-8-8-------------------------------------------------------------------|
E|---------------------------------------------------------------------------|


DARTH VADER:

e|---------------------------------------------------------------------------|
B|---------------------------------------------------------------------------|
G|---------------------------------------------------------------------------|
D|------------------------3-3-3-3-4-3----------------------------------------------|
A|1--1-1-1-1---4-1----4-1--------------1-------4--1--------------------------------------|
E|-----------2------2------------------------2----------------------------------|

________________________________________________________
REFERENCIAS:

| /  Slide
| v  vibrato
| x  Palm Mute

Fuente: Lacuerda