a b c d e f g h i j k l m n o p q r s t u v w x y z 0-9

Spideman

Musica De Tv

			
Es la clasica cancion de el hombre araña.


E-----3-1---------3-4-3-1-----1-4-8-6-4-1-----3-4-3-1-----4-3-
B-1-4-----4-1-1-4---------4-1-------------1-4---------4-1-----
G-------------------------------------------------------------
D-------------------------------------------------------------
A-------------------------------------------------------------
E-------------------------------------------------------------


E-1-----------1-------3-8-------------------------------------
B---4-1-4-1-----4-1-4-----------------------------------------
G-----------4-------------------------------------------------
D-------------------------------------------------------------
A-------------------------------------------------------------
E-------------------------------------------------------------
Y eso es todo espero que este bien.
 

Fuente: tusacordes.com