a b c d e f g h i j k l m n o p q r s t u v w x y z 0-9

Sin Codificar - Una Canción Para Vos

Musica De Tv

			
Es la intro sola...La saque recien de oido
Espero que les guste!!

|-------------------------------------|
|-------------------------------------|
|--------------12--15-14-12-14--------|
|-----12--14---------------------12---|
|-------------------------------------|
|-------------------------------------|

|----------------------------------------|
|----------------------------------------|
|------------12--15-14-12-15-14----------|
|---12--14-------------------------14----|
|----------------------------------------|
|----------------------------------------|


|----------------------------------------|
|----------------------------------------|
|---------12--14--15-14-12-15-12---------|
|-----14---------------------------------|
|----------------------------------------|
|----------------------------------------|



|----------------------------------------|
|----------------------------------------|
|-----15-14-12--15-14-12--12-------------|
|----------------------------------------|
|----------------------------------------|
|----------------------------------------|

Fuente: Tusacordes