a b c d e f g h i j k l m n o p q r s t u v w x y z 0-9

Send Me On My Way(matilda)(era De Hielo)

Musica De Tv

			
e-------3--3--------------3--3--------------3--3--------------3--3--------|
B-1-----------1-1-1--1----------3-3-3--1----------3-3-3--1----------3-3-3-|
G----0------------------0-----------------0-----------------0-------------|
D-------------------------------------------------------------------------|
A-3----------------------------------------------------------------------|
E-------------------------------------------------------------------------|

  F
e-------3--3--------------3--3--------------3--3--------------3--3--------|
B-1-----------3-3-3--1----------3-3-3--1----------3-3-3--1----------3-3-3-|
G----2------------------2-----------------2-----------------2-------------|
D-------------------------------------------------------------------------|
A-------------------------------------------------------------------------|
E-------------------------------------------------------------------------|

* distinguishes he says the words really fast


Verse 1:

C
I would like to reach out my hand, *i'm gonna say to you*, *i'm gonna tell
you* to run
F
bummela say, bummela aah! he doesn't really say anything of meaning here
C
Well pick me up with golden hand, *i'm gonna say to you*, *i'm gonna tell
you* to run
F
bummela say, bummela aah!

Chorus:
      Am                G   F
Well, I would like to hold my little hand
Am			  G	      F
How we will run, we will, how we will crawl, we will
Am               G   F
I would like to hold my little hand
Am			  G	      F
How we will run, we will, how we will crawl

Verse 2:

Send me on my way...

Verse 1 no riff 2x
Chorus
Verse 2
Instrumental
Chorus

Bridge:
Am
Send me on my way
F
Send me on my way
C                 G
Send me on my way

Fuente: Tusacordes