a b c d e f g h i j k l m n o p q r s t u v w x y z 0-9

Scooby Doo Where Are You

Musica De Tv

B
E
F#
			
bueno aqui la puse por separado el orden de los acordes 
esta claro pero el tiempo de los cambios son 
es algo confuso pero encuanto lo tenga la buelvo a subir


Intro: B E B E B E B E B E F# 
 
Verso[pm]: B5 C#5 F#5 B5 [2x] 
 
Refrão: E5 [repeat] B5 E5 B5 
        E5 [repeat] F5 F#5 
 
Ponte: B5 E5 F#5 B5 
 
Riff:  
 
B---------------------------------- 
G-8-8-6-6------6-8---------8-6-6--- 
D---------9-9------6-6-----------9- 
A----------------------9-9--------- 
E---------------------------------- 
 
G---------------------------------- 
D-8-8-6-6-----6-8-9-9-----8-8-6---- 
A---------9-9-------------------9-- 
E---------------------9-9---------- 

Scooby-dooby-doo, where are you?
we got some work to do now.
scooby-dooby-doo, where are you?
we need some help from you now.
Come on scooby doo, i see you... pretending you got a sliver.
but you're not fooling me cause i can
see, the way you shake and shiver.
You know we got a mystery to solve,
so scooby doo be ready for your act.
[scooby doo]: uh-uh uh-uh
don't hold back!
and scooby doo if you come through you're going to have yourself a scooby snack!
that's a fact!
Scooby-dooby-doo, here are you.
you're ready and you're willing.
if we can count on you scooby doo,
i know we'll catch that villian.

Fuente: Lacuerda