a b c d e f g h i j k l m n o p q r s t u v w x y z 0-9

Rocky

Musica De Tv

			
e---------------------3---------------------
b---------5-----5-5-5-5-5-5-5-5-5-5-5--5-5-5-5-5-5-5---
g-5-5-5-5---5-5-5-5-5---5-5-4-4-4-4-4--4-4-4-4-4-4-4---
d----------------------------------------
a----------------------------------------
E---------------------------------------

e-------5--5-7-------5-5-7--------------------------|
b---5-8--------5-5-8-------5-------------5----------|
g------------------------------7-5-7-5-7------------|
d---------------------------------------------------|
a---------------------------------------------------|
E---------------------------------------------------|


e---------------------------------------------------|
b--------------------------------------|
g-5-5-4-4-2-2-0-----------------------------------|
d---------------3-2---------------------------------|
a---------------------------------------------------|
E---------------------------------------------------|

Fuente: tusacordes.com