a b c d e f g h i j k l m n o p q r s t u v w x y z 0-9

Rocky - Gonna Fly Now (bill Conti)

Musica De Tv

			
::::::::::::::::::::::::::ESTE ES UN TEMA DE LA PELICULA ROCKY:::::::::::::::::::::::::
:::::::::::::::::::::::::::::::::::::GONNA FLY NOW:::::::::::::::::::::::::::::::::::::
:::::::::::::::::::::::::::::::::::::::::::::::::::::::::::::::::::::::::::::::::::::::
E|-|----------------------------------------------------------------------------------|
B|-|---------------0-------0-0-0-0-0-0-0-0-3-0-0-0------------------------------------|
G|-|-0-0-0-0-0-0-0---0-0-0------------------------------------------------------------|
D|-|-----------------------------------------------4-4-4-4-4-4-4-4-5-4-4-4-4-4-4------|
A|-|----------------------------------------------------------------------------------|
E|-|----------------------------------------------------------------------------------|

E|-|---------0-----------0------------------------------------------------------------|
B|-|---1-3-3-------1-3-3--------------------------------------------------------------|
G|-|-2---------2-2---------2-1-0-0---------2---------------3-2-2-2-2-2-2-2-2-2-2-2-2-2|
D|-|-------------------------------3-5-3-5---3-3-3-3-3-3-3----------------------------|
A|-|----------------------------------------------------------------------------------|
E|-|----------------------------------------------------------------------------------|

E|-|-------1--------------------------------------------------------------------------|
B|-|-1-3-3---3-3-1-0-3-1-0-3-1-0---------3-1-0---1-1-0--------------------------------|
G|-|-----------------------------2-0-2-0-------2-----------------0-2-2-2-2-2----------|
D|-|---------------------------------------------------2-5-2-2-2-------------2-2-2----|
A|-|----------------------------------------------------------------------------------|
E|-|----------------------------------------------------------------------------------|

E|-|----------------------------------------------------------------------------------|
B|-|---0-0-------------0-------------------------0-0-0--------------------------------|
G|-|-0-----2-0-2-0---0---2-----------------0-2-0-------2-0---0-2-0-2-------0-2-0-2----|
D|-|---------------2-------2-2-0---0-0-2-0-----------------2---------2-2-2---------2--|
A|-|-----------------------------2----------------------------------------------------|
E|-|----------------------------------------------------------------------------------|

E|-|-------0-----------0-0------------------------------------------------------------|
B|-|-0-3-0---3-0-3-0-3-----3-0-3-0-3-0---------0-------------------0------------------|
G|-|-----------------------------------2-0-2-2-----------0-2-0-2-2---------------0----|
D|-|---------------------------------------------2-0-2-2-------------2-2-2-2-2-2------|
A|-|----------------------------------------------------------------------------------|
E|-|----------------------------------------------------------------------------------|

E|-|----------------------------------------------------------------------------------|
B|-|----------------------------------------------------------------------------------|
G|-|----------------------------------------------------------------------------------|
D|-|-2-2-2-0-0-0-2-2-2-3-3-3----------------------------------------------------------|
A|-|----------------------------------------------------------------------------------|
E|-|----------------------------------------------------------------------------------|

Fuente: tusacordes.com