a b c d e f g h i j k l m n o p q r s t u v w x y z 0-9

Pucca Theme

Musica De Tv

			
e--------------
.--------------
.---------4-6-6
.--4---6--4-6-6         x2
.--4---6--2-4-4
E--2---4------- 


e------------------------------------------------------
.-12-8-8-8-8-6--6-6-6-6-8-12-8-6-12-8-6-6-8-6-6-8-6-7-8
.------------------------------------------------------
.------------------------------------------------------
.------------------------------------------------------
E------------------------------------------------------

e.------------------------------------
.--15-13-12-10-12-13-12-10-8-7-8-15-15
.-------------------------------------
.-------------------------------------
.-------------------------------------
E-------------------------------------




jaimito.yeimi@live.com.ar :) ji   jiy

Fuente: tusacordes.com