a b c d e f g h i j k l m n o p q r s t u v w x y z 0-9

Popelle El Marino Soy

Musica De Tv

			
Popelle el marino soy
E-------------------------------------------------------------
B-------------------------------------------------------------
G---------------------------------------0---------------------
D---0--0--0-----0------0--2-----2-----2--0--x--x--0--2--2-----
A---2---------3--2---------------3------------------------3---
E-------------------------------------------------------------
                                                                        

E--------------------------------------------------------------
B--------------------------------------------------------------
G-0------------------------------------------------------------
D----4--2--0--2--0-----------0--2--0-----------x--x--0--2------
A-------------------2----2-----------3--0--------------3--3--3-
E---------------------3--------------------3-------------------
                                                                        
E---------------------------------------------------------------
B---------------------------------------------------------------
G-------0--0----------------------------------------------------
D-0--2-------0--0--------------0--0--2--2--2-----------0--0--0--
A-------------------0--0--2--3-----------------0--2--3----------
E--------------------------------------------------------------3
                                                                        
E---------------------------------------------------------------
B---------------------------------------------------------------
G---------------------------------------------------------------
D---------------------------------------------------------------
A---0--2--3--3--3-----------------------------------------------
E------------------2--2--3--------------------------------------

Fuente: tusacordes.com