a b c d e f g h i j k l m n o p q r s t u v w x y z 0-9

Piratas Del Caribe

Musica De Tv

			
e---------------1-1--1-3----------------------------1-1--1-3-----
B----1-3-3--3-5----------5-5--3-1-3------1-3-3--3-5----------5-5-
G--2-----------------------------------2-------------------------
D---------------------------------------------------------------- 
A----------------------------------------------------------------
E----------------------------------------------------------------

e---------------------1-3-3--3-5-6-6-5-3-5---0-1-1-3-5-----1-0-0-
B-3-1-3------1-3-3--3----------------------3-----------3-3-------
G----------2-----------------------------------------------------
D----------------------------------------------------------------
A----------------------------------------------------------------
E----------------------------------------------------------------

e-1---0--
B---3----
G--------  Repetirlo todo 2 veces
D--------
A--------
E--------

Fuente: Tusacordes