a b c d e f g h i j k l m n o p q r s t u v w x y z 0-9

Piratas Del Caribe

Musica De Tv

			
e-------------------------------------------------------------|
B-------------------------------------------------------------|
G---5-7-7-7-9-10-10-10-12-9-9-7-5-7---------------------------|
D-7---------------------------------7-------------------------|
A-------------------------------------------------------------|
E-------------------------------------------------------------|

X 2


e-----------------------------------------------------------------|
B-----------6-8-8-8-10-11-11-10-8-10-----------6-8-10-6-5-5-6-5-3--|
G---5-7-7-7--------------------------7---7-7-7--------------------|
D-7---------------------------------------------------------------|
A-----------------------------------------------------------------|
E-----------------------------------------------------------------|


e------------------------------------------------------------------|
B--10-10-10-11-10-8-8-8-8-10-10-10-10-11-10-8-6-5-3----------------|
G------------------------------------------------------------------|
D------------------------------------------------------------------|
A------------------------------------------------------------------|
E------------------------------------------------------------------|


e--------------------------------------------------------|
B--3-5-6-8-10-8-6-5-6-8-10-8-6-8-10-8-6-5-6-5-3-1-3------|
G--------------------------------------------------------|
D--------------------------------------------------------|
A--------------------------------------------------------|
E--------------------------------------------------------|


e-----------------------------------1-5-6-3-----------|
B---3-5-6-5-6-8-6-8-10-8-6-3--3-3-3---------6-5-3-1-3-|
G-----------------------------------------------------|
D-----------------------------------------------------|
A-----------------------------------------------------|
E-----------------------------------------------------|

e------------------------------------------------------------|
B--10-11-10-10-10-10-8-8-6-5-6-5-3-1-3-----------------------|
G------------------------------------------------------------|
D------------------------------------------------------------|
A------------------------------------------------------------|
E------------------------------------------------------------|

X 2

Fuente: Tusacordes