a b c d e f g h i j k l m n o p q r s t u v w x y z 0-9

Piratas Del Caribe

Musica De Tv

			
Bueno aqui les dejo la cancion de Piratas  del Caribe espero que les sea de su agrado ya que es mi primera cancion xD VALE AIOSˇˇˇˇ

si tengo algun error espero me lo hagan saber  Grax

:::awant Johnny Depp:::


1|---------------------------------------|
2|-------------0-1-1--1--3-0-0-----------|
3|----0-2-2--2-------------------2-0-2---|
4|--2------------------------------------|    X2 
5|---------------------------------------|
6|---------------------------------------|


1|----------------------0-1-1--0---0-|-------------0----|
2|-------------0-3-3--3----------3---|-----0-1-1-3------|
3|----0-2-2--2-----------------------|---2------------2-|
4|--2--------------------------------|------------------|
5|-----------------------------------|------------------|
6|-----------------------------------|------------------|


1|---------------|     se repite las veces que sean necesariaS
2|---1-0-0-------|     las que ustedes gusten, sino maximo como  
3|-2-------2-0-2-|     una 3 veces.
4|---------------|
5|---------------|
6|---------------|


Esta cancion se toca con un ritmo un poco acelerado

Fuente: tusacordes.com