a b c d e f g h i j k l m n o p q r s t u v w x y z 0-9

Piratas Del Caribe

Musica De Tv

			
e/--------------------------------/
B/-----------5-6-6-6-8-5-5--------/
G/---5-7-7-7---------------7-5-5/7/
D/-7------------------------------/  X2
A/--------------------------------/
E/--------------------------------/


e/-----------------3-5-6-6-5-3-5-----------3-5--/
B/-----------5-6-6-------------------5-6-6------/
G/---5-7-7-7---------------------7-7-----------7/
D/-7--------------------------------------------/
A/----------------------------------------------/
E/----------------------------------------------/

e/----------------/
B/-5-6-5-5--------/
G/---------7-5-5/7/
D/----------------/
A/----------------/
E/----------------/

Fuente: tusacordes.com