a b c d e f g h i j k l m n o p q r s t u v w x y z 0-9

Piratas Del Caribe

Musica De Tv

			
1 -------------------------------------------------------
2--------------------------------------------------------
3-----------------------0--------------------------------
4-----0-0--0-2-3-3---3------22-0------0------------------
5-0-3-----------------------------33---------------------
6--------------------------------------------------------

1 -------------------------------------------------------
2--------------------------------------------------------
3----------------0-0-------------------------------------
4-----0-0--0-2--------3-3----2---0-----------------------
5-0-3--------------------------3-------------------------
6--------------------------------------------------------

1 ----------------------------------------------------------------------
2------------------------------0-0------------------------------------
3----------------0-0---0--2---------0-0--2-------0---2-----------0-0--
4-----0-0--0-2----------------------------0---22------0---0-2--3--3---
5-0-3-----------------------------------------------------------------
6---------------------------------------------------------------------


oojala qe lees guuste,  
                           un beesi  .

Fuente: tusacordes.com