a b c d e f g h i j k l m n o p q r s t u v w x y z 0-9

Piratas Del Caribe

Musica De Tv

			
e-------------------------------------
B-------------5--7-7--7-7--5-5--------
G----5-7-7--7-------------------7-5-7-  x2
D--7----------------------------------
A-------------------------------------
E-------------------------------------


e------------------------5--7-7---7-7--5-----
B-------------5--7-7--7----------------------
G----5-7-7--7-------------------------------- 
D--7-----------------------------------------
A--------------------------------------------
E--------------------------------------------


e----------------------------------------------------------
B--5-5-5--7----5-5-5--7-6----6-6--3-3-3-4---6-6--3-3-3-4-3-
G----------------------------------------------------------
D----------------------------------------------------------
A----------------------------------------------------------
E----------------------------------------------------------


e------------------------3-3-3-1--
B-----5--7-7-7---5-5-5------------
G--7------------------------------
D---------------------------------
A---------------------------------
E---------------------------------

Fuente: tusacordes.com