a b c d e f g h i j k l m n o p q r s t u v w x y z 0-9

Pink Panter

Musica De Tv

			
e|------------------|
B|------------------|
G|-0-1-2-3--3-2-1-0-|
D|-0-1-2-3--3-2-1-0-|   X2       
A|-0-1-2-3--3-2-1-0-|       
E|------------------|




e|----------------------------------|
B|----------------------3-2-----3-2-|
G|-0-1-2-3--4-5-2-3-4-5-3-2-2-3-3-2-|
A|-0-1-2-3--4-5-2-3-4-5-3-2-2-3-3-2-|
D|-0-1-2-3--4-5-2-3-4-5-----2-3-----|
E|----------------------------------|




    

Fuente: tusacordes.com