a b c d e f g h i j k l m n o p q r s t u v w x y z 0-9

Pantera Rosa

Musica De Tv

			
Hola a todos, hoy les traigo un clasico de los intros televisivos, para aquellos que conocen el tipo de canciones 
que subo les prometo que para las proxima les traigo algo bien del Rock, por ahora comencemos con esta buena cancion:

e--------------------------------------------------------------------------------------
B--------------------------------------------------------------------------------------
G--------------------------------------------------------------------------------------
D--------------------------------------------------------------------------------------
A-------------------------------------------------10-9------9-8--7-5-------------------
E--6-7---9-10---6-7---9-10---6-7---9-10--6-7-9-10------7-10----------7-5-7--6-7--9-10--

e--------------------------------------------------------------------------------------
B--------------------------------------------------------------------------------------
G--------------------------------------------------------------------------------------
D------------------------------------------------------------------------9-7-----------
A-----------10-9------9-8----------------------10-9------9-8--7-5------------9-7-------
E--6-7-9-10------7-10------6-7--9-10--6-7-9-10------7-10----------7-5-7----------10-7--

e--------------------------------------------------------------------------------------
B--------------------------------------------------------------------------------------
G----------------------------------------------------------------5/4---0-4-3--2p0------
D---------------------------------------------------4/5------4/5-5/4-2-0-4-3--2p0-2p0-2
A--8p7-8p7-8p7-8p7--7-5--------7-5---------4/5-6/7--4/5--6/7-4/5-----2------------2p0-2
E-----------------------5-7-7------5-7-7---4/5-6/7-------6/7---------------------------

e--------------------------------------------------------------------------------------
B--------------------------------------------------------------------------------------
G------------------------------------------------------------------5/4---0-4-3--2p0----
D-----------4/5----------5/4---0-9-8--7/8-9-----------4/5------4/5-5/4-2-0-4-3--2p0-2p0
A--4/5-6/7--4/5--6/7-4/5-5/4-2-0-9-8--7/8-9--4/5-6/7--4/5--6/7-4/5-----2------------2p0
E--4/5-6/7-------6/7-4/5-----2---------------4/5-6/7-------6/7-------------------------

e-------------10/12-10-----------------------------------------------------------------
B----------------------12-10------11p10-11p10-11p10-11p10--8----------8----------------
G----------------------------12-9----------------------------9-7-9-9----9-7-9-9--------
D--2-----------------------------------------------------------------------------------
A--2--4/5-6/7---------------------------------------------------------------------4-5-6
E-----4/5-6/7--------------------------------------------------------------------------

e--------------------------------------------------------------------------------------
B--------------------------------------------------------------------------------------
G------------------5-4-----9-7------------------------5-4-----4-3--2-0-----------------
D-----4-5------4-5-----5-9---------------4-5------4-5-----4-5----------2-0-2-----------
A--7-------6-7------------------4-5-6-7-------6-7-----------------------------4-5-6-7--
E--------------------------------------------------------------------------------------

e-----------------------------------------------------3----------4/12--|
B--5----------------------------------------------------5-3-5-5--4/12--|
G----7-4-------3p2-3p2-3p2-3p2--0----------0---------------------------|
D--------7-5----------------------2-0-2-2----2-0-2-2-------------------|
A------------7---------------------------------------------------------|
E----------------------------------------------------------------------|

                                       FIN

Pues eso es todo, ojala les haya gustado, hasta la proxima, recuerden que pondre las porximas canciones como comentario normal.

Nos vemos....

Fuente: Tusacordes