a b c d e f g h i j k l m n o p q r s t u v w x y z 0-9

Opening De El Pajaro Loco

Musica De Tv

			
1e---------------------------------------
2b-------8-5---------85--8-6-5-8-6-5-6-8-
3g---------------------------------------
4D-5-5-5-------5-5-5---------------------
5A---------------------------------------
6E---------------------------------------


1e------5-5-----5-----5------------------
2b-8-8------6-6---8-6---8-5--------------
3g---------------------------------------
4D---------------------------------------
5A---------------------------------------
6E---------------------------------------


1e-----------------------------------------
2b---5-6-8-6-5--7---------8--5--------8--5-
3g-7------------7--------------------------
4D--------------7---5-5-5-------5-5-5------
5A--------------5--------------------------
6E--------------5--------------------------

Otra vez ando aqui transcribiendo cosas nuevas y viejas chidas
ruben_lira_2007@hotmail.com
lira211205@yahoo.com.es
lira211205@yahoo.musica.mx
espero que les guste

Fuente: tusacordes.com