a b c d e f g h i j k l m n o p q r s t u v w x y z 0-9

Mision Imposible

Musica De Tv

			
Verse 1

1/----------------------/
2/----------------------/
3/----------------------/
4/----------------------/
5/-------1-3------------/
6/---3-3------3-3--1-2--/
 este se repite 2 veces

1/----------------------/
2/--1--------1----------/
3/----2--------2--------/
4/-----1---------2------/
5/----------------------/
6/----------------------/
   este tambien se repite 2 veces


califiquen porfavor gracias

www.shadexd1313.es.tl

Fuente: tusacordes.com