a b c d e f g h i j k l m n o p q r s t u v w x y z 0-9

Mario 64

Musica De Tv

			
esta es la que se olle al comensar el juego

e]-12-12-12---12--15-----
B]----------13-----------
G]--------------------12-

e]-8----5--7-6-5---0-3-5-1-3-0------
B]--8-5-----------------------1-3-0-
G]---------------0------------------

e]-8----5--7-6-5---0-3-5-1-3-0------
B]--8-5-----------------------1-3-0-
G]---------------0------------------

e]--3-2-1--0-------------3-2-1---0-8-8-8-
B]-------4-----1---1--3--------4---6-6-6-
G]------------2---2----------------------
D]----------3----------------------------
A]-3-------------------3-----------------

e]----3-2-1---0-----------------------
B]----------4-----1---1-3-4-3-1-------
G]---------------2--2-----------------
D]-5-----------3----------------------
A]--3--------------------------------3
E]--------------------------------3-3-

e]--3-2-1--0-------------3-2-1---0-8-8-8-
B]-------4-----1---1--3--------4---6-6-6-
G]------------2---2----------------------
D]----------3----------------------------
A]-3-------------------3-----------------

e]----3-2-1---0-----------------------
B]----------4-----1---1-3-4-3-1-------
G]---------------2--2-----------------
D]-5-----------3----------------------
A]--3--------------------------------3
E]--------------------------------3-3-

e]-----------0----------------0-----
B]-1-1-1-1-3--1------1-1-1-1-3------
G]--------------2-0-----------------
D]-------------------------------5--
A]------------------------------3-3-

e]-----------0-----------12-12-12---12---15----
B]-1-1-1-1-3--1-------------------13-----------
G]-------------2-0--------------------------12-

e]-0-------1-1------5-5-5-3-1--0---0-----
B]--1----------------------------3--1----
G]---0-1-2-----2-2-------------------2-0-

e]-0--------1-1-------------------1-1-1-0----0------
B]--1-------------------------------------3----1----
G]---0--1-2-----2---------2-----2---------------2-0-

Fuente: Tusacordes