a b c d e f g h i j k l m n o p q r s t u v w x y z 0-9

Marcha Imperial La Guerra De Las Galaxias

Musica De Tv

			
E--------------------------------------------
B--------------------------------------------
G---------------------------6-6-6-6-7--------
D-4-4-4-4---6-4---6-4--6--4-----------8-7----
A---------5-----5-----5----------------------
E--------------------------------------------


E----------------------------------
B----------------------------------
G---4---7----7--8-8---8------4-----
D--5---6----8--8----7----8-7-5-6---
A----------------------------------
E----------------------------------Fuente: Tus acordes