a b c d e f g h i j k l m n o p q r s t u v w x y z 0-9

Los Padrinos Magicos, Barbilla Roja

Musica De Tv

			
Intro : x2

1)-------------------
2)-------------------
3)-------------------    x2
4)-------------------
5)-0-3-4-5-5-5-4-0-0-
6)-------------------


1)------------------
2)------------------
3)------------------
4)-0-3-4-5-5-5-4-0-0     x2
5)------------------
6)------------------


este es el final 


1)-------------------
2)-------------------
3)-------------------    
4)-------------------
5)-0-3-4-5-5-5-4-0--
6)-------------------



1)--------------------------
2)--------------------------
3)--------------------------
4)-0-3-4-5-5-5-4-3-0-5-3-3-3 
5)--------------------------
6)--------------------------

1)------------------------------------------
2)------------------------------------------
3)-------------------7-5--------------------
4)---------------5-7-----7-5-----------12-12
5)-0-3-4-5-5-5-5-------------7-5-3-5-5------
6)------------------------------------------




Fijensen suena igualita ;)




Fuente: tusacordes.com