a b c d e f g h i j k l m n o p q r s t u v w x y z 0-9

Los Padrinos Mágicos (soundtrack)

Musica De Tv

			
"Los Padrinos Mágicos"
___________________________
Es el opening de la serie.
Arreglos por: Sebastián Ara.
Buenos Aires, Argentina, 2009
Email MSN: playing.the.angel_@hotmail.com

***NOTA: Éste tema lo transcribí yo, si ven esta misma tablatura en otro sitio web es que yo también lo puse ahí, no es que sea una copia.

e|---------------------------------------------------------------------------|
B|-3-3-3-3-6-3-5----5-6-3-3-3-3----------------------------------------------
G|---------------------------------------------------------------------------|
D|---------------------------------------------------------------------------|
A|---------------------------------------------------------------------------|
E|---------------------------------------------------------------------------|
 "Timmy is...    ...understands"

e|-5---------------3-5-3----------------------------------------------------
B|---3-3-3-6-3---6-------6-5-3-----------------------------------------------
G|---------------------------------------------------------------------------|
D|---------------------------------------------------------------------------|
A|---------------------------------------------------------------------------|
E|---------------------------------------------------------------------------|
 "Mom and...         ...command"

e|-3-3-3---3-5-3-------3-3---5-----------------------------------------------
B|-------6-------6---------6-------------------------------------------------
G|---------------------------------------------------------------------------|
D|---------------------------------------------------------------------------|
A|---------------------------------------------------------------------------|
E|---------------------------------------------------------------------------|
 "The doom and gloom...

e|-------10------------------------------------6-7-9--
B|/10-10----10-8-6-6-----6-8h10----------10-10--------
G|-------------------7-7------------------------------
D|-----------------------------------------------------
A|-----------------------------------------------------
E|-----------------------------------------------------
 "They grant his every wish cuz in reality...

e|--10!------------------------------------------------------------------
B|--------8-------------------------------------------------------------
G|----------10---7-7-9-10-9-------7-10-7-9-7--10-7-9--------------------
D|--------------------------------instrumental     -------------------
A|----------------------------------------------------------------------
E|----------------------------------------------------------------------
 "Oddparents..."

e|--10!------------------------
B|--------8-------------------
G|----------10---7-7-9-10-9---
D|---------------------------
A|----------------------------
E|----------------------------
  Oddparents, fairly odd parents

e|---------------------
B|-9-9-6-8-6--9-6-8-6--
G|---------------------
D|---------------------
A|--------------------
E|-------------------
Really mod, peapod buff bod, hot rod

e|---------------------------------6--6--8--8--9-9-------
B|-------------------8--8--10--10------------------------
G|7--7--9--9--10--10-------------------------------------
D|-------------------------------------------------------
A|-------------------------------------------------------
E|-------------------------------------------------------
Obtuse, rubber goose, green moose, guava juice, giant snake, birthday cake, large fries, chocolate shake!

e|--10!------------------------
B|--------8-------------------
G|----------10---7-7-9-10-9---
D|---------------------------
A|----------------------------
E|----------------------------
Oddparents, fairly odd parents

e|------------------------------------8-9-10-------------------------10!------
B|---6--------8h9h10---------10-10-10--------------------------------10!------
G|-7----7-7-7-----------------------------------------------------------------
D|---------------------------------------------------------------------------|
A|---------------------------------------------------------------------------|
E|---------------------------------------------------------------------------|
It flips your lid when you are the kid with fairly oddparents!..."           


| /  slide up
|   slide down
| h  hammer-on
| p  pull-off
| ~  vibrato
| +  harmonic
| x  Mute note

Fuente: tusacordes.com