a b c d e f g h i j k l m n o p q r s t u v w x y z 0-9

Looney Tunes

Musica De Tv

			

bueno a y les ba esta canción 
                                             x2
1----10-12-10-9-10----------------------  
2-------------------12--------------------
3------------------------------------------
4---------------------------------------------
5--------------------------------------------
6------------------------------------------



                                            
1----11-13-11-10-10----------------------  
2-------------------13--------------------
3------------------------------------------
4---------------------------------------------
5--------------------------------------------
6----------------------------------------------









Fuente: tusacordes.com