a b c d e f g h i j k l m n o p q r s t u v w x y z 0-9

Law And Order Uve

Musica De Tv

			
Mas o menos es lo que pude sacar del intro
hay algunas otras tablaturas en otras paginas
pero pues muy malas, esta es la que mas se acerca
espero les guste.



E|-----------------------|
B|-----------------------|
G|------0-0-0-2-3----5v--|
D|------0-0-0-2-3----5v--|
A|----0------------------|
E|--0--------------------|

E|-----------------------|
B|-----------------------|
G|------0-0-0-2-3-2-0----|
D|------0-0-0-2-3-2-0----|
A|----0------------------|
E|--0--------------------|

E|------------------------------------|
B|------------------------------------|
G|-3p3p3p--5--3--------0-0-0-2-3-5v---|
D|-3p3p3p--------------0-0-0-2-3-5v---|
A|-------------------0----------------|
E|-----------------0------------------|

E|--------------5-----3-----3--5---3---3--------------|
B|--6--6--8------6-----4--------6---4-----------------|
G|----5-----------5-----5--------5---5----------------|
D|----------------------------------------------------|
A|----------------------------------------------------|
E|----------------------------------------------------|

E|----------------------------|
B|----4---6-----4---6---------|
G|---5---7--7--5---7--7-------|
D|--6---8-----6---8-----------|
A|----------------------------|
E|----------------------------|

E|--0-0-0-0-0-----------------|
B|--1-1-1-0-0-----------------|
G|--2-2-2-0-0-----------------|  2 Veces
D|--2-2-2-0-0-----------------|
A|----------------------------|
E|----------------------------|

E|-------------------------------------|
B|-------------------------------------|
G|-7b-7-7-7-7-7-5-7-5-5h7p-------------|
D|-------------------------7-----5-----|
A|----------------------------5-7------|
E|-------------------------------------|

E|-----------------------|
B|-----------------------|
G|------0-0-0-2-3----5v--|
D|------0-0-0-2-3----5v--|
A|----0------------------|
E|--0--------------------|

Fuente: Tusacordes